  0
SECTION
  2
HEADER
  9
$ACADVER
  1
AC1015
  9
$ACADMAINTVER
 70
     6
  9
$DWGCODEPAGE
  3
ANSI_1252
  9
$INSBASE
 10
0.0
 20
0.0
 30
0.0
  9
$EXTMIN
 10
-175.0
 20
-701.0
 30
0.0
  9
$EXTMAX
 10
175.0
 20
699.0
 30
0.0
  9
$LIMMIN
 10
0.0
 20
0.0
  9
$LIMMAX
 10
420.0
 20
297.0
  9
$ORTHOMODE
 70
     0
  9
$REGENMODE
 70
     1
  9
$FILLMODE
 70
     1
  9
$QTEXTMODE
 70
     0
  9
$MIRRTEXT
 70
     1
  9
$LTSCALE
 40
1.0
  9
$ATTMODE
 70
     1
  9
$TEXTSIZE
 40
3.5
  9
$TRACEWID
 40
1.0
  9
$TEXTSTYLE
  7
Standard
  9
$CLAYER
  8
0
  9
$CELTYPE
  6
ByLayer
  9
$CECOLOR
 62
   256
  9
$CELTSCALE
 40
1.0
  9
$DISPSILH
 70
     0
  9
$DIMSCALE
 40
1.0
  9
$DIMASZ
 40
3.302
  9
$DIMEXO
 40
1.0
  9
$DIMDLI
 40
3.75
  9
$DIMRND
 40
0.0
  9
$DIMDLE
 40
0.0
  9
$DIMEXE
 40
1.0
  9
$DIMTP
 40
0.0
  9
$DIMTM
 40
0.0
  9
$DIMTXT
 40
3.5
  9
$DIMCEN
 40
2.5
  9
$DIMTSZ
 40
0.0
  9
$DIMTOL
 70
     0
  9
$DIMLIM
 70
     0
  9
$DIMTIH
 70
     1
  9
$DIMTOH
 70
     1
  9
$DIMSE1
 70
     0
  9
$DIMSE2
 70
     0
  9
$DIMTAD
 70
     1
  9
$DIMZIN
 70
     1
  9
$DIMBLK
  1

  9
$DIMASO
 70
     1
  9
$DIMSHO
 70
     1
  9
$DIMPOST
  1

  9
$DIMAPOST
  1

  9
$DIMALT
 70
     0
  9
$DIMALTD
 70
     3
  9
$DIMALTF
 40
0.0393700787
  9
$DIMLFAC
 40
1.0
  9
$DIMTOFL
 70
     1
  9
$DIMTVP
 40
0.0
  9
$DIMTIX
 70
     0
  9
$DIMSOXD
 70
     0
  9
$DIMSAH
 70
     0
  9
$DIMBLK1
  1

  9
$DIMBLK2
  1

  9
$DIMSTYLE
  2
ISO-25
  9
$DIMCLRD
 70
     0
  9
$DIMCLRE
 70
     0
  9
$DIMCLRT
 70
     0
  9
$DIMTFAC
 40
1.0
  9
$DIMGAP
 40
1.524
  9
$DIMJUST
 70
     0
  9
$DIMSD1
 70
     0
  9
$DIMSD2
 70
     0
  9
$DIMTOLJ
 70
     0
  9
$DIMTZIN
 70
     1
  9
$DIMALTZ
 70
     0
  9
$DIMALTTZ
 70
     0
  9
$DIMUPT
 70
     0
  9
$DIMDEC
 70
     2
  9
$DIMTDEC
 70
     2
  9
$DIMALTU
 70
     2
  9
$DIMALTTD
 70
     3
  9
$DIMTXSTY
  7
Standard
  9
$DIMAUNIT
 70
     0
  9
$DIMADEC
 70
     2
  9
$DIMALTRND
 40
0.0
  9
$DIMAZIN
 70
     0
  9
$DIMDSEP
 70
    44
  9
$DIMATFIT
 70
     3
  9
$DIMFRAC
 70
     0
  9
$DIMLDRBLK
  1

  9
$DIMLUNIT
 70
     2
  9
$DIMLWD
 70
    -2
  9
$DIMLWE
 70
    -2
  9
$DIMTMOVE
 70
     0
  9
$LUNITS
 70
     2
  9
$LUPREC
 70
     2
  9
$SKETCHINC
 40
1.0
  9
$FILLETRAD
 40
10.0
  9
$AUNITS
 70
     0
  9
$AUPREC
 70
     2
  9
$MENU
  1
.
  9
$ELEVATION
 40
0.0
  9
$PELEVATION
 40
0.0
  9
$THICKNESS
 40
0.0
  9
$LIMCHECK
 70
     0
  9
$CHAMFERA
 40
0.0
  9
$CHAMFERB
 40
0.0
  9
$CHAMFERC
 40
0.0
  9
$CHAMFERD
 40
0.0
  9
$SKPOLY
 70
     0
  9
$TDCREATE
 40
2459257.616889699
  9
$TDUCREATE
 40
2459257.616889699
  9
$TDUPDATE
 40
2459257.616937801
  9
$TDUUPDATE
 40
2459257.616937801
  9
$TDINDWG
 40
0.0000000116
  9
$TDUSRTIMER
 40
0.0000000116
  9
$USRTIMER
 70
     1
  9
$ANGBASE
 50
0.0
  9
$ANGDIR
 70
     0
  9
$PDMODE
 70
     0
  9
$PDSIZE
 40
-1.0
  9
$PLINEWID
 40
0.0
  9
$SPLFRAME
 70
     0
  9
$SPLINETYPE
 70
     6
  9
$SPLINESEGS
 70
     8
  9
$HANDSEED
  5
21E
  9
$SURFTAB1
 70
     6
  9
$SURFTAB2
 70
     6
  9
$SURFTYPE
 70
     6
  9
$SURFU
 70
     6
  9
$SURFV
 70
     6
  9
$UCSBASE
  2

  9
$UCSNAME
  2

  9
$UCSORG
 10
0.0
 20
0.0
 30
0.0
  9
$UCSXDIR
 10
1.0
 20
0.0
 30
0.0
  9
$UCSYDIR
 10
0.0
 20
1.0
 30
0.0
  9
$UCSORTHOREF
  2

  9
$UCSORTHOVIEW
 70
     0
  9
$UCSORGTOP
 10
0.0
 20
0.0
 30
0.0
  9
$UCSORGBOTTOM
 10
0.0
 20
0.0
 30
0.0
  9
$UCSORGLEFT
 10
0.0
 20
0.0
 30
0.0
  9
$UCSORGRIGHT
 10
0.0
 20
0.0
 30
0.0
  9
$UCSORGFRONT
 10
0.0
 20
0.0
 30
0.0
  9
$UCSORGBACK
 10
0.0
 20
0.0
 30
0.0
  9
$PUCSBASE
  2

  9
$PUCSNAME
  2

  9
$PUCSORG
 10
0.0
 20
0.0
 30
0.0
  9
$PUCSXDIR
 10
1.0
 20
0.0
 30
0.0
  9
$PUCSYDIR
 10
0.0
 20
1.0
 30
0.0
  9
$PUCSORTHOREF
  2

  9
$PUCSORTHOVIEW
 70
     0
  9
$PUCSORGTOP
 10
0.0
 20
0.0
 30
0.0
  9
$PUCSORGBOTTOM
 10
0.0
 20
0.0
 30
0.0
  9
$PUCSORGLEFT
 10
0.0
 20
0.0
 30
0.0
  9
$PUCSORGRIGHT
 10
0.0
 20
0.0
 30
0.0
  9
$PUCSORGFRONT
 10
0.0
 20
0.0
 30
0.0
  9
$PUCSORGBACK
 10
0.0
 20
0.0
 30
0.0
  9
$USERI1
 70
     0
  9
$USERI2
 70
     0
  9
$USERI3
 70
     0
  9
$USERI4
 70
     0
  9
$USERI5
 70
     0
  9
$USERR1
 40
0.0
  9
$USERR2
 40
0.0
  9
$USERR3
 40
0.0
  9
$USERR4
 40
0.0
  9
$USERR5
 40
0.0
  9
$WORLDVIEW
 70
     1
  9
$SHADEDGE
 70
     3
  9
$SHADEDIF
 70
    70
  9
$TILEMODE
 70
     1
  9
$MAXACTVP
 70
    64
  9
$PINSBASE
 10
0.0
 20
0.0
 30
0.0
  9
$PLIMCHECK
 70
     0
  9
$PEXTMIN
 10
-175.0
 20
-701.0
 30
0.0
  9
$PEXTMAX
 10
175.0
 20
699.0
 30
0.0
  9
$PLIMMIN
 10
-318.5897435897
 20
-754.8461538462
  9
$PLIMMAX
 10
1813.7179487179
 20
752.8461538462
  9
$UNITMODE
 70
     0
  9
$VISRETAIN
 70
     1
  9
$PLINEGEN
 70
     0
  9
$PSLTSCALE
 70
     1
  9
$TREEDEPTH
 70
  3020
  9
$CMLSTYLE
  2
Standard
  9
$CMLJUST
 70
     0
  9
$CMLSCALE
 40
20.0
  9
$PROXYGRAPHICS
 70
     1
  9
$MEASUREMENT
 70
     1
  9
$CELWEIGHT
370
    -1
  9
$ENDCAPS
280
     0
  9
$JOINSTYLE
280
     0
  9
$LWDISPLAY
290
     1
  9
$INSUNITS
 70
     4
  9
$HYPERLINKBASE
  1

  9
$STYLESHEET
  1

  9
$XEDIT
290
     1
  9
$CEPSNTYPE
380
     0
  9
$PSTYLEMODE
290
     1
  9
$FINGERPRINTGUID
  2
{c237031b-4c1d-4a21-884f-230452ce0528}
  9
$VERSIONGUID
  2
{FAEB1C32-E019-11D5-929B-00C0DF256EC4}
  9
$EXTNAMES
290
     1
  9
$PSVPSCALE
 40
0.0
  9
$OLESTARTUP
290
     0
  0
ENDSEC
  0
SECTION
  2
CLASSES
  0
CLASS
  1
ACDBDICTIONARYWDFLT
  2
AcDbDictionaryWithDefault
  3
ObjectDBX Classes
 90
        0
280
     0
281
     0
  0
CLASS
  1
VISUALSTYLE
  2
AcDbVisualStyle
  3
ObjectDBX Classes
 90
     4095
280
     0
281
     0
  0
CLASS
  1
MATERIAL
  2
AcDbMaterial
  3
ObjectDBX Classes
 90
     1153
280
     0
281
     0
  0
CLASS
  1
SCALE
  2
AcDbScale
  3
ObjectDBX Classes
 90
     1153
280
     0
281
     0
  0
CLASS
  1
TABLESTYLE
  2
AcDbTableStyle
  3
ObjectDBX Classes
 90
     4095
280
     0
281
     0
  0
CLASS
  1
MLEADERSTYLE
  2
AcDbMLeaderStyle
  3
ACDB_MLEADERSTYLE_CLASS
 90
     4095
280
     0
281
     0
  0
CLASS
  1
SUN
  2
AcDbSun
  3
SCENEOE
 90
     1153
280
     0
281
     0
  0
CLASS
  1
ACDBPLACEHOLDER
  2
AcDbPlaceHolder
  3
ObjectDBX Classes
 90
        0
280
     0
281
     0
  0
CLASS
  1
LAYOUT
  2
AcDbLayout
  3
ObjectDBX Classes
 90
        0
280
     0
281
     0
  0
ENDSEC
  0
SECTION
  2
TABLES
  0
TABLE
  2
VPORT
  5
8
330
0
100
AcDbSymbolTable
 70
     1
  0
VPORT
  5
29
330
8
100
AcDbSymbolTableRecord
100
AcDbViewportTableRecord
  2
*Active
 70
     0
 10
0.0
 20
0.0
 11
1.0
 21
1.0
 12
0.0
 22
-1.0
 13
0.0
 23
0.0
 14
10.0
 24
10.0
 15
10.0
 25
10.0
 16
0.0
 26
0.0
 36
1.0
 17
0.0
 27
0.0
 37
0.0
 40
1428.0
 41
0.25
 42
50.0
 43
0.0
 44
0.0
 50
0.0
 51
0.0
 71
     0
 72
   100
 73
     1
 74
     3
 75
     0
 76
     0
 77
     0
 78
     0
281
     0
 65
     1
110
0.0
120
0.0
130
0.0
111
1.0
121
0.0
131
0.0
112
0.0
122
1.0
132
0.0
 79
     0
146
0.0
  0
ENDTAB
  0
TABLE
  2
LTYPE
  5
5
330
0
100
AcDbSymbolTable
 70
     6
  0
LTYPE
  5
14
330
5
100
AcDbSymbolTableRecord
100
AcDbLinetypeTableRecord
  2
ByBlock
 70
     0
  3

 72
    65
 73
     0
 40
0.0
  0
LTYPE
  5
15
330
5
100
AcDbSymbolTableRecord
100
AcDbLinetypeTableRecord
  2
ByLayer
 70
     0
  3

 72
    65
 73
     0
 40
0.0
  0
LTYPE
  5
16
330
5
100
AcDbSymbolTableRecord
100
AcDbLinetypeTableRecord
  2
Continuous
 70
     0
  3
Solid line
 72
    65
 73
     0
 40
0.0
  0
LTYPE
  5
6E
330
5
100
AcDbSymbolTableRecord
100
AcDbLinetypeTableRecord
  2
HIDDEN
 70
     0
  3
Hidden __ __ __ __ __ __ __ __ __ __ __ __ __ __
 72
    65
 73
     2
 40
1.905
 49
1.27
 74
     0
 49
-0.635
 74
     0
  0
LTYPE
  5
6F
330
5
100
AcDbSymbolTableRecord
100
AcDbLinetypeTableRecord
  2
PHANTOM
 70
     0
  3
Phantom ______  __  __  ______  __  __  ______
 72
    65
 73
     6
 40
12.7
 49
6.35
 74
     0
 49
-1.27
 74
     0
 49
1.27
 74
     0
 49
-1.27
 74
     0
 49
1.27
 74
     0
 49
-1.27
 74
     0
  0
LTYPE
  5
70
330
5
100
AcDbSymbolTableRecord
100
AcDbLinetypeTableRecord
  2
CENTER
 70
     0
  3
Center ____ _ ____ _ ____ _ ____ _ ____ _ ____
 72
    65
 73
     4
 40
10.16
 49
6.35
 74
     0
 49
-1.27
 74
     0
 49
1.27
 74
     0
 49
-1.27
 74
     0
  0
LTYPE
  5
71
330
5
100
AcDbSymbolTableRecord
100
AcDbLinetypeTableRecord
  2
CENTERX2
 70
     0
  3
Center (2x) ________  __  ________  __  _____
 72
    65
 73
     4
 40
20.32
 49
12.7
 74
     0
 49
-2.54
 74
     0
 49
2.54
 74
     0
 49
-2.54
 74
     0
  0
LTYPE
  5
72
330
5
100
AcDbSymbolTableRecord
100
AcDbLinetypeTableRecord
  2
DOT2
 70
     0
  3
Dot (.5x) ........................................
 72
    65
 73
     2
 40
0.635
 49
0.0
 74
     0
 49
-0.635
 74
     0
  0
ENDTAB
  0
TABLE
  2
LAYER
  5
2
330
0
100
AcDbSymbolTable
 70
     1
  0
LAYER
  5
10
330
2
100
AcDbSymbolTableRecord
100
AcDbLayerTableRecord
  2
0
 70
     0
 62
     7
  6
Continuous
370
    -3
390
F
  0
ENDTAB
  0
TABLE
  2
STYLE
  5
3
330
0
100
AcDbSymbolTable
 70
     1
  0
STYLE
  5
11
330
3
100
AcDbSymbolTableRecord
100
AcDbTextStyleTableRecord
  2
Standard
 70
     0
 40
0.0
 41
1.0
 50
0.0
 71
     0
 42
3.5
  3
txt
  4

  0
ENDTAB
  0
TABLE
  2
VIEW
  5
6
330
0
100
AcDbSymbolTable
 70
     0
  0
ENDTAB
  0
TABLE
  2
UCS
  5
7
330
0
100
AcDbSymbolTable
 70
     0
  0
ENDTAB
  0
TABLE
  2
APPID
  5
9
330
0
100
AcDbSymbolTable
 70
     1
  0
APPID
  5
12
330
9
100
AcDbSymbolTableRecord
100
AcDbRegAppTableRecord
  2
ACAD
 70
     0
  0
ENDTAB
  0
TABLE
  2
DIMSTYLE
  5
A
330
0
100
AcDbSymbolTable
 70
     1
100
AcDbDimStyleTable
  0
DIMSTYLE
105
27
330
A
100
AcDbSymbolTableRecord
100
AcDbDimStyleTableRecord
  2
ISO-25
 70
     0
 41
2.5
 42
0.625
 43
3.75
 44
1.25
 73
     0
 74
     0
 77
     1
 78
     8
140
2.5
141
2.5
143
0.0393700787
147
0.625
171
     3
172
     1
178
     0
271
     2
272
     2
274
     3
278
    44
283
     0
284
     8
340
11
  0
ENDTAB
  0
TABLE
  2
BLOCK_RECORD
  5
1
330
0
100
AcDbSymbolTable
 70
     3
  0
BLOCK_RECORD
  5
1F
330
1
100
AcDbSymbolTableRecord
100
AcDbBlockTableRecord
  2
*Model_Space
340
22
  0
BLOCK_RECORD
  5
1B
330
1
100
AcDbSymbolTableRecord
100
AcDbBlockTableRecord
  2
*Paper_Space
340
1E
  0
BLOCK_RECORD
  5
23
330
1
100
AcDbSymbolTableRecord
100
AcDbBlockTableRecord
  2
*Paper_Space0
340
26
  0
BLOCK_RECORD
  5
12D
330
1
100
AcDbSymbolTableRecord
100
AcDbBlockTableRecord
  2
*Paper_Space1
340
12E
  0
BLOCK_RECORD
  5
160
330
1
100
AcDbSymbolTableRecord
100
AcDbBlockTableRecord
  2
*Paper_Space2
340
161
  0
ENDTAB
  0
ENDSEC
  0
SECTION
  2
BLOCKS
  0
BLOCK
  5
20
330
1F
100
AcDbEntity
  8
0
100
AcDbBlockBegin
  2
*Model_Space
 70
     0
 10
0.0
 20
0.0
 30
0.0
  3
*Model_Space
  1

  0
ENDBLK
  5
21
330
1F
100
AcDbEntity
  8
0
100
AcDbBlockEnd
  0
BLOCK
  5
1C
330
1B
100
AcDbEntity
 67
     1
  8
0
100
AcDbBlockBegin
  2
*Paper_Space
 70
     0
 10
0.0
 20
0.0
 30
0.0
  3
*Paper_Space
  1

  0
ENDBLK
  5
1D
330
1B
100
AcDbEntity
 67
     1
  8
0
100
AcDbBlockEnd
  0
BLOCK
  5
24
330
23
100
AcDbEntity
  8
0
100
AcDbBlockBegin
  2
*Paper_Space0
 70
     0
 10
0.0
 20
0.0
 30
0.0
  3
*Paper_Space0
  1

  0
LINE
  5
11B
330
23
100
AcDbEntity
  8
0
  6
Continuous
 62
     7
370
    25
100
AcDbLine
 10
296.5
 20
-255.0
 30
0.0
 11
278.5
 21
-255.0
 31
0.0
  0
LINE
  5
11C
330
23
100
AcDbEntity
  8
0
  6
Continuous
 62
     7
370
    25
100
AcDbLine
 10
278.5
 20
-253.0
 30
0.0
 11
294.5
 21
-253.0
 31
0.0
  0
LINE
  5
11D
330
23
100
AcDbEntity
  8
0
  6
Continuous
 62
     7
370
    25
100
AcDbLine
 10
286.5
 20
-701.0
 30
0.0
 11
286.5
 21
-253.0
 31
0.0
  0
LINE
  5
11E
330
23
100
AcDbEntity
  8
0
  6
Continuous
 62
     7
370
    25
100
AcDbLine
 10
296.5
 20
-255.0
 30
0.0
 11
296.5
 21
-699.0
 31
0.0
  0
LINE
  5
11F
330
23
100
AcDbEntity
  8
0
  6
Continuous
 62
     7
370
    25
100
AcDbLine
 10
278.5
 20
-699.0
 30
0.0
 11
296.5
 21
-699.0
 31
0.0
  0
LINE
  5
120
330
23
100
AcDbEntity
  8
0
  6
Continuous
 62
     7
370
    25
100
AcDbLine
 10
-21.5
 20
-701.0
 30
0.0
 11
294.5
 21
-701.0
 31
0.0
  0
LINE
  5
121
330
23
100
AcDbEntity
  8
0
  6
Continuous
 62
     7
370
    25
100
AcDbLine
 10
-21.5
 20
699.0
 30
0.0
 11
-21.5
 21
-701.0
 31
0.0
  0
LINE
  5
122
330
23
100
AcDbEntity
  8
0
  6
Continuous
 62
     7
370
    25
100
AcDbLine
 10
278.5
 20
-701.0
 30
0.0
 11
278.5
 21
699.0
 31
0.0
  0
LINE
  5
123
330
23
100
AcDbEntity
  8
0
  6
Continuous
 62
     7
370
    25
100
AcDbLine
 10
294.5
 20
699.0
 30
0.0
 11
-21.5
 21
699.0
 31
0.0
  0
LINE
  5
124
330
23
100
AcDbEntity
  8
0
  6
Continuous
 62
     7
370
    25
100
AcDbLine
 10
296.5
 20
697.0
 30
0.0
 11
278.5
 21
697.0
 31
0.0
  0
LINE
  5
125
330
23
100
AcDbEntity
  8
0
  6
Continuous
 62
     7
370
    25
100
AcDbLine
 10
286.5
 20
-251.0
 30
0.0
 11
286.5
 21
699.0
 31
0.0
  0
LINE
  5
126
330
23
100
AcDbEntity
  8
0
  6
Continuous
 62
     7
370
    25
100
AcDbLine
 10
278.5
 20
-249.0
 30
0.0
 11
296.5
 21
-249.0
 31
0.0
  0
LINE
  5
127
330
23
100
AcDbEntity
  8
0
  6
Continuous
 62
     7
370
    25
100
AcDbLine
 10
296.5
 20
697.0
 30
0.0
 11
296.5
 21
-249.0
 31
0.0
  0
LINE
  5
128
330
23
100
AcDbEntity
  8
0
  6
Continuous
 62
     7
370
    25
100
AcDbLine
 10
294.5
 20
-251.0
 30
0.0
 11
278.5
 21
-251.0
 31
0.0
  0
ARC
  5
129
330
23
100
AcDbEntity
  8
0
  6
Continuous
 62
     7
370
    25
100
AcDbCircle
 10
294.5
 20
-699.0
 30
0.0
 40
2.000000000000227
100
AcDbArc
 50
270.0
 51
360.0
  0
ARC
  5
12A
330
23
100
AcDbEntity
  8
0
  6
Continuous
 62
     7
370
    25
100
AcDbCircle
 10
294.5
 20
-255.0
 30
0.0
 40
2.000000000000057
100
AcDbArc
 50
0.0
 51
90.0
  0
ARC
  5
12B
330
23
100
AcDbEntity
  8
0
  6
Continuous
 62
     7
370
    25
100
AcDbCircle
 10
294.5
 20
697.0
 30
0.0
 40
2.000000000000227
100
AcDbArc
 50
0.0
 51
90.0
  0
ARC
  5
12C
330
23
100
AcDbEntity
  8
0
  6
Continuous
 62
     7
370
    25
100
AcDbCircle
 10
294.5
 20
-249.0
 30
0.0
 40
2.000000000000142
100
AcDbArc
 50
270.0
 51
360.0
  0
VIEWPORT
  5
218
330
23
100
AcDbEntity
  8
0
100
AcDbViewport
 10
0.0
 20
0.0
 30
0.0
 40
205.6
 41
156.0
 68
     1
 69
     1
 12
0.0
 22
-1.0
 13
0.0
 23
0.0
 14
10.0
 24
10.0
 15
10.0
 25
10.0
 16
0.0
 26
0.0
 36
1.0
 17
0.0
 27
0.0
 37
0.0
 42
50.0
 43
0.0
 44
0.0
 45
1428.0
 50
0.0
 51
0.0
 72
   100
 90
   557152
  1

281
     0
 71
     1
 74
     0
110
0.0
120
0.0
130
0.0
111
1.0
121
0.0
131
0.0
112
0.0
122
1.0
132
0.0
 79
     0
146
0.0
  0
ENDBLK
  5
25
330
23
100
AcDbEntity
  8
0
100
AcDbBlockEnd
  0
BLOCK
  5
12F
330
12D
100
AcDbEntity
  8
0
100
AcDbBlockBegin
  2
*Paper_Space1
 70
     0
 10
0.0
 20
0.0
 30
0.0
  3
*Paper_Space1
  1

  0
LINE
  5
14C
330
12D
100
AcDbEntity
  8
0
  6
Continuous
 62
     7
370
    25
100
AcDbLine
 10
175.0
 20
21.5
 30
0.0
 11
-175.0
 21
21.5
 31
0.0
  0
LINE
  5
14D
330
12D
100
AcDbEntity
  8
0
  6
Continuous
 62
     7
370
    25
100
AcDbLine
 10
175.0
 20
-278.5
 30
0.0
 11
175.0
 21
21.5
 31
0.0
  0
LINE
  5
14E
330
12D
100
AcDbEntity
  8
0
  6
Continuous
 62
     7
370
    25
100
AcDbLine
 10
-175.0
 20
-278.5
 30
0.0
 11
175.0
 21
-278.5
 31
0.0
  0
LINE
  5
14F
330
12D
100
AcDbEntity
  8
0
  6
Continuous
 62
     7
370
    25
100
AcDbLine
 10
157.0
 20
-278.5
 30
0.0
 11
157.0
 21
21.5
 31
0.0
  0
LINE
  5
150
330
12D
100
AcDbEntity
  8
0
  6
Continuous
 62
     7
370
    25
100
AcDbLine
 10
-157.0
 20
-278.5
 30
0.0
 11
-157.0
 21
21.5
 31
0.0
  0
LINE
  5
151
330
12D
100
AcDbEntity
  8
0
  6
Continuous
 62
     7
370
    25
100
AcDbLine
 10
-175.0
 20
-278.5
 30
0.0
 11
-175.0
 21
21.5
 31
0.0
  0
LINE
  5
152
330
12D
100
AcDbEntity
  8
0
  6
Continuous
 62
     7
370
    25
100
AcDbLine
 10
171.5
 20
-286.5
 30
0.0
 11
171.5
 21
-278.5
 31
0.0
  0
LINE
  5
153
330
12D
100
AcDbEntity
  8
0
  6
Continuous
 62
     7
370
    25
100
AcDbLine
 10
173.5
 20
-278.5
 30
0.0
 11
173.5
 21
-286.5
 31
0.0
  0
LINE
  5
154
330
12D
100
AcDbEntity
  8
0
  6
Continuous
 62
     7
370
    25
100
AcDbLine
 10
171.5
 20
-286.5
 30
0.0
 11
173.5
 21
-286.5
 31
0.0
  0
LINE
  5
155
330
12D
100
AcDbEntity
  8
0
  6
Continuous
 62
     7
370
    25
100
AcDbLine
 10
-171.5
 20
-278.5
 30
0.0
 11
-171.5
 21
-286.5
 31
0.0
  0
LINE
  5
156
330
12D
100
AcDbEntity
  8
0
  6
Continuous
 62
     7
370
    25
100
AcDbLine
 10
-171.5
 20
-286.5
 30
0.0
 11
-173.5
 21
-286.5
 31
0.0
  0
LINE
  5
157
330
12D
100
AcDbEntity
  8
0
  6
Continuous
 62
     7
370
    25
100
AcDbLine
 10
-173.5
 20
-286.5
 30
0.0
 11
-173.5
 21
-278.5
 31
0.0
  0
LINE
  5
158
330
12D
100
AcDbEntity
  8
0
  6
Continuous
 62
     7
370
    25
100
AcDbLine
 10
-163.5
 20
-294.5
 30
0.0
 11
163.5
 21
-294.5
 31
0.0
  0
LINE
  5
159
330
12D
100
AcDbEntity
  8
0
  6
Continuous
 62
     7
370
    25
100
AcDbLine
 10
163.5
 20
-294.5
 30
0.0
 11
163.5
 21
-296.5
 31
0.0
  0
LINE
  5
15A
330
12D
100
AcDbEntity
  8
0
  6
Continuous
 62
     7
370
    25
100
AcDbLine
 10
163.5
 20
-296.5
 30
0.0
 11
-163.5
 21
-296.5
 31
0.0
  0
LINE
  5
15B
330
12D
100
AcDbEntity
  8
0
  6
Continuous
 62
     7
370
    25
100
AcDbLine
 10
-163.5
 20
-294.5
 30
0.0
 11
-163.5
 21
-296.5
 31
0.0
  0
ARC
  5
15C
330
12D
100
AcDbEntity
  8
0
  6
Continuous
 62
     7
370
    25
100
AcDbCircle
 10
-163.5
 20
-286.5
 30
0.0
 40
8.000000000000028
100
AcDbArc
 50
180.0
 51
270.0
  0
ARC
  5
15D
330
12D
100
AcDbEntity
  8
0
  6
Continuous
 62
     7
370
    25
100
AcDbCircle
 10
163.5
 20
-286.5
 30
0.0
 40
8.000000000000114
100
AcDbArc
 50
270.0
 51
0.0
  0
ARC
  5
15E
330
12D
100
AcDbEntity
  8
0
  6
Continuous
 62
     7
370
    25
100
AcDbCircle
 10
163.5
 20
-286.5
 30
0.0
 40
10.00000000000003
100
AcDbArc
 50
270.0
 51
0.0
  0
ARC
  5
15F
330
12D
100
AcDbEntity
  8
0
  6
Continuous
 62
     7
370
    25
100
AcDbCircle
 10
-163.5
 20
-286.5
 30
0.0
 40
10.00000000000006
100
AcDbArc
 50
180.0
 51
270.0
  0
VIEWPORT
  5
21A
330
12D
100
AcDbEntity
  8
0
100
AcDbViewport
 10
0.0
 20
0.0
 30
0.0
 40
205.6
 41
156.0
 68
     1
 69
     1
 12
0.0
 22
-1.0
 13
0.0
 23
0.0
 14
10.0
 24
10.0
 15
10.0
 25
10.0
 16
0.0
 26
0.0
 36
1.0
 17
0.0
 27
0.0
 37
0.0
 42
50.0
 43
0.0
 44
0.0
 45
1428.0
 50
0.0
 51
0.0
 72
   100
 90
   557152
  1

281
     0
 71
     1
 74
     0
110
0.0
120
0.0
130
0.0
111
1.0
121
0.0
131
0.0
112
0.0
122
1.0
132
0.0
 79
     0
146
0.0
  0
ENDBLK
  5
130
330
12D
100
AcDbEntity
  8
0
100
AcDbBlockEnd
  0
BLOCK
  5
162
330
160
100
AcDbEntity
  8
0
100
AcDbBlockBegin
  2
*Paper_Space2
 70
     0
 10
0.0
 20
0.0
 30
0.0
  3
*Paper_Space2
  1

  0
SPLINE
  5
164
330
160
100
AcDbEntity
  8
0
  6
Continuous
 62
     7
370
    25
100
AcDbSpline
210
0.0
220
0.0
230
1.0
 70
     8
 71
     3
 72
    29
 73
    25
 74
     0
 42
0.000000001
 43
0.00000001
 40
0.0
 40
0.0
 40
0.0
 40
0.0
 40
0.0434185987039849
 40
0.0891209538304114
 40
0.1347851261174107
 40
0.1804175123974696
 40
0.2260243367218565
 40
0.2716113473570579
 40
0.3171836489464276
 40
0.3627456324833125
 40
0.4083009734306037
 40
0.4538526731335708
 40
0.4994031244735031
 40
0.5449536834821073
 40
0.5905058372987694
 40
0.6360607323412361
 40
0.681619180125458
 40
0.7271817189716158
 40
0.7727486671816883
 40
0.8183201679148573
 40
0.8638962264296358
 40
0.9094767405620288
 40
0.9550615253665321
 40
1.0
 40
1.0
 40
1.0
 40
1.0
 10
-145.4283217425679
 20
-362.1062064823288
 30
0.0
 10
-147.0205101059434
 20
-362.0446014320758
 30
0.0
 10
-150.2886336718172
 20
-361.9181509937104
 30
0.0
 10
-155.350773700761
 20
-361.3697801379441
 30
0.0
 10
-160.5734572055693
 20
-360.5503278083794
 30
0.0
 10
-165.8717521748803
 20
-359.4411473874137
 30
0.0
 10
-171.2348093486662
 20
-358.0518016909697
 30
0.0
 10
-176.6551707349199
 20
-356.3822412655372
 30
0.0
 10
-182.12428465533
 20
-354.4354837493212
 30
0.0
 10
-187.6337140852838
 20
-352.2142392850788
 30
0.0
 10
-193.1748292289405
 20
-349.7218302601877
 30
0.0
 10
-198.7389117865236
 20
-346.9619563674202
 30
0.0
 10
-204.3171320043595
 20
-343.9387750719197
 30
0.0
 10
-209.9006003986287
 20
-340.6568756097884
 30
0.0
 10
-215.4803906704141
 20
-337.1212794424029
 30
0.0
 10
-221.0475803302395
 20
-333.3374145947909
 30
0.0
 10
-226.5932518393788
 20
-329.3111318445058
 30
0.0
 10
-232.1084913117311
 20
-325.0486590132544
 30
0.0
 10
-237.5844788908717
 20
-320.5567324255061
 30
0.0
 10
-243.0122421590655
 20
-315.8420549702262
 30
0.0
 10
-248.3836629036584
 20
-310.9132622632055
 30
0.0
 10
-253.6878013284577
 20
-305.7735229177757
 30
0.0
 10
-258.8997903892943
 20
-300.4734195629475
 30
0.0
 10
-262.2952560009945
 20
-296.7900540252148
 30
0.0
 10
-263.9808674803818
 20
-294.9615203443588
 30
0.0
  0
SPLINE
  5
165
330
160
100
AcDbEntity
  8
0
  6
Continuous
 62
     7
370
    25
100
AcDbSpline
210
0.0
220
0.0
230
1.0
 70
     8
 71
     3
 72
    10
 73
     6
 74
     0
 42
0.000000001
 43
0.00000001
 40
0.0
 40
0.0
 40
0.0
 40
0.0
 40
0.4295837982732652
 40
0.9145103265306652
 40
1.0
 40
1.0
 40
1.0
 40
1.0
 10
-327.5082536633969
 20
-255.9586512077476
 30
0.0
 10
-327.6774323953896
 20
-256.2997676918738
 30
0.0
 10
-328.0375849385224
 20
-257.0259462594481
 30
0.0
 10
-328.2385527240978
 20
-257.9132136181192
 30
0.0
 10
-328.1820655692077
 20
-258.4123377712731
 30
0.0
 10
-328.1735997009309
 20
-258.4871427307826
 30
0.0
  0
SPLINE
  5
167
330
160
100
AcDbEntity
  8
0
  6
Continuous
 62
     7
370
    25
100
AcDbSpline
210
0.0
220
0.0
230
1.0
 70
     8
 71
     3
 72
    16
 73
    12
 74
     0
 42
0.000000001
 43
0.00000001
 40
0.0
 40
0.0
 40
0.0
 40
0.0
 40
0.0674848725207671
 40
0.190894114678602
 40
0.3138602863465426
 40
0.4363436686095508
 40
0.5585949702671046
 40
0.6810985763532672
 40
0.8042444280322935
 40
0.9286219083997097
 40
0.9999999999999999
 40
0.9999999999999999
 40
0.9999999999999999
 40
0.9999999999999999
 10
-93.63090706807449
 20
-759.4515828403005
 30
0.0
 10
-93.37797935305476
 20
-759.5887213339497
 30
0.0
 10
-92.66252401568997
 20
-759.9766442914315
 30
0.0
 10
-91.34122058634216
 20
-760.4725251742043
 30
0.0
 10
-89.66385589577816
 20
-760.874968661264
 30
0.0
 10
-87.90401685379199
 20
-761.0782396627679
 30
0.0
 10
-86.11786665138912
 20
-761.0823772573674
 30
0.0
 10
-84.35471396883986
 20
-760.8872000368403
 30
0.0
 10
-82.66762567351469
 20
-760.491215677896
 30
0.0
 10
-81.31989316170466
 20
-759.99329810064
 30
0.0
 10
-80.58523758222287
 20
-759.5963291106033
 30
0.0
 10
-80.31736110381763
 20
-759.4515828403005
 30
0.0
  0
SPLINE
  5
16A
330
160
100
AcDbEntity
  8
0
  6
Continuous
 62
     7
370
    25
100
AcDbSpline
210
0.0
220
0.0
230
1.0
 70
     8
 71
     3
 72
    12
 73
     8
 74
     0
 42
0.000000001
 43
0.00000001
 40
0.0
 40
0.0
 40
0.0
 40
0.0
 40
0.1781258170612988
 40
0.3748308276756548
 40
0.5741806810756135
 40
0.7821138061772339
 40
1.0
 40
1.0
 40
1.0
 40
1.0
 10
-328.1821541942042
 20
-620.9421332298933
 30
0.0
 10
-328.1660485114834
 20
-621.3057460175723
 30
0.0
 10
-328.132157262679
 20
-622.0708977760754
 30
0.0
 10
-327.7036619178799
 20
-623.182060017103
 30
0.0
 10
-327.0165991839491
 20
-624.2319473943318
 30
0.0
 10
-326.0774268872962
 20
-625.1863793033625
 30
0.0
 10
-325.2686599920014
 20
-625.7039978800904
 30
0.0
 10
-324.8548245160751
 20
-625.9688565572873
 30
0.0
  0
SPLINE
  5
16B
330
160
100
AcDbEntity
  8
0
  6
Continuous
 62
     7
370
    25
100
AcDbSpline
210
0.0
220
0.0
230
1.0
 70
     8
 71
     3
 72
    13
 73
     9
 74
     0
 42
0.000000001
 43
0.00000001
 40
0.0
 40
0.0
 40
0.0
 40
0.0
 40
0.1253677680070854
 40
0.3585050967473609
 40
0.561127476502547
 40
0.7546361396542961
 40
0.9632267171958505
 40
1.0
 40
1.0
 40
1.0
 40
1.0
 10
-324.854824516075
 20
523.9175771793235
 30
0.0
 10
-325.0981363882426
 20
523.7680838602186
 30
0.0
 10
-325.7939176696502
 20
523.3405886779975
 30
0.0
 10
-326.7131308109593
 20
522.5310560314065
 30
0.0
 10
-327.5226801372156
 20
521.4744133153677
 30
0.0
 10
-328.018980934125
 20
520.3323287579612
 30
0.0
 10
-328.2390610330802
 20
519.4338692446753
 30
0.0
 10
-328.1821318213494
 20
518.9345451149406
 30
0.0
 10
-328.1735997009309
 20
518.8597101844508
 30
0.0
  0
SPLINE
  5
16E
330
160
100
AcDbEntity
  8
0
  6
Continuous
 62
     7
370
    25
100
AcDbSpline
210
0.0
220
0.0
230
1.0
 70
     8
 71
     3
 72
    16
 73
    12
 74
     0
 42
0.000000001
 43
0.00000001
 40
0.0
 40
0.0
 40
0.0
 40
0.0
 40
0.0674848725207666
 40
0.1908941146786279
 40
0.313860286346563
 40
0.436343668609591
 40
0.5585949702671502
 40
0.6810985763533033
 40
0.8042444280323384
 40
0.9286219083997448
 40
1.0
 40
1.0
 40
1.0
 40
1.0
 10
-93.6309070680744
 20
-392.0082174917133
 30
0.0
 10
-93.37797935305476
 20
-392.1453559853627
 30
0.0
 10
-92.66252401568984
 20
-392.5332789428445
 30
0.0
 10
-91.34122058634188
 20
-393.0291598256171
 30
0.0
 10
-89.66385589577753
 20
-393.4316033126767
 30
0.0
 10
-87.9040168537914
 20
-393.6348743141812
 30
0.0
 10
-86.11786665138848
 20
-393.6390119087802
 30
0.0
 10
-84.35471396883916
 20
-393.4438346882529
 30
0.0
 10
-82.6676256735141
 20
-393.0478503293091
 30
0.0
 10
-81.31989316170434
 20
-392.5499327520529
 30
0.0
 10
-80.58523758222262
 20
-392.1529637620161
 30
0.0
 10
-80.31736110381753
 20
-392.0082174917134
 30
0.0
  0
SPLINE
  5
171
330
160
100
AcDbEntity
  8
0
  6
Continuous
 62
     7
370
    25
100
AcDbSpline
210
0.0
220
0.0
230
1.0
 70
     8
 71
     3
 72
    31
 73
    27
 74
     0
 42
0.000000001
 43
0.00000001
 40
0.0
 40
0.0
 40
0.0
 40
0.0
 40
0.0162488194480519
 40
0.0592881079902364
 40
0.1022967192546188
 40
0.1452693982154345
 40
0.1882121646692915
 40
0.2311308758154592
 40
0.2740309411116887
 40
0.3169171643283753
 40
0.3597936776492245
 40
0.4026639399015344
 40
0.4455307755282243
 40
0.4883964363716707
 40
0.5312621985376905
 40
0.5741294615121393
 40
0.6169993041417327
 40
0.659872490110821
 40
0.702749526010432
 40
0.7456307113815047
 40
0.7885161809453026
 40
0.8314059396503424
 40
0.8742998913543307
 40
0.9171978620125988
 40
0.9600996182174785
 40
1.0
 40
1.0
 40
1.0
 40
1.0
 10
-271.7771178264675
 20
-289.0197303450206
 30
0.0
 10
-271.1522237866109
 20
-289.0212467085989
 30
0.0
 10
-268.8721328891813
 20
-289.0267795614849
 30
0.0
 10
-264.8633736036344
 20
-289.2433946182288
 30
0.0
 10
-259.722691622905
 20
-289.7775867717839
 30
0.0
 10
-254.4977456539671
 20
-290.6033559401656
 30
0.0
 10
-249.2000562646267
 20
-291.710845571418
 30
0.0
 10
-243.8368369659902
 20
-293.1006439232585
 30
0.0
 10
-238.4165189917381
 20
-294.7700831415484
 30
0.0
 10
-232.9473934450291
 20
-296.7168731189105
 30
0.0
 10
-227.4379671289895
 20
-298.9381088878593
 30
0.0
 10
-221.8968511520278
 20
-301.4305202437999
 30
0.0
 10
-216.3327688144472
 20
-304.1903935057206
 30
0.0
 10
-210.754548549801
 20
-307.2135749938556
 30
0.0
 10
-205.1710801227835
 20
-310.4954743162613
 30
0.0
 10
-199.5912900288125
 20
-314.0310708499323
 30
0.0
 10
-194.0240996904162
 20
-317.8149343720149
 30
0.0
 10
-188.4784307180252
 20
-321.8412220586808
 30
0.0
 10
-182.9631817760517
 20
-326.103676467612
 30
0.0
 10
-177.4872295434293
 20
-330.5956718175594
 30
0.0
 10
-172.0593343404547
 20
-335.3100926107051
 30
0.0
 10
-166.6884060566961
 20
-340.2398433367961
 30
0.0
 10
-161.3824294751709
 20
-345.3760067853057
 30
0.0
 10
-156.1523974720044
 20
-350.7147824536763
 30
0.0
 10
-151.1179059133466
 20
-356.1028526007621
 30
0.0
 10
-147.8748674386529
 20
-359.7942191354084
 30
0.0
 10
-146.3121242967382
 20
-361.5730009109951
 30
0.0
  0
SPLINE
  5
173
330
160
100
AcDbEntity
  8
0
  6
Continuous
 62
     7
370
    25
100
AcDbSpline
210
0.0
220
0.0
230
1.0
 70
     8
 71
     3
 72
    12
 73
     8
 74
     0
 42
0.000000001
 43
0.00000001
 40
0.0
 40
0.0
 40
0.0
 40
0.0
 40
0.1781258170613778
 40
0.374830827675766
 40
0.5741806810757153
 40
0.7821138061773426
 40
1.0
 40
1.0
 40
1.0
 40
1.0
 10
-328.1821541942041
 20
-253.4987678813063
 30
0.0
 10
-328.1660485114833
 20
-253.8623806689858
 30
0.0
 10
-328.132157262679
 20
-254.627532427489
 30
0.0
 10
-327.7036619178795
 20
-255.7386946685164
 30
0.0
 10
-327.0165991839486
 20
-256.7885820457454
 30
0.0
 10
-326.0774268872959
 20
-257.7430139547758
 30
0.0
 10
-325.268659992001
 20
-258.2606325315035
 30
0.0
 10
-324.854824516075
 20
-258.5254912087002
 30
0.0
  0
SPLINE
  5
18E
330
160
100
AcDbEntity
  8
0
  6
Continuous
 62
     7
370
    25
100
AcDbSpline
210
0.0
220
0.0
230
1.0
 70
     8
 71
     3
 72
    18
 73
    14
 74
     0
 42
0.000000001
 43
0.00000001
 40
0.0
 40
0.0
 40
0.0
 40
0.0
 40
0.1249999999999908
 40
0.1249999999999908
 40
0.2499999999999816
 40
0.2499999999999816
 40
0.3749999999999724
 40
0.3749999999999724
 40
0.4999999999999631
 40
0.4999999999999631
 40
0.7499999999999816
 40
0.7499999999999816
 40
1.0
 40
1.0
 40
1.0
 40
1.0
 10
-145.310443533836
 20
-363.1310808490987
 30
0.0
 10
-145.4051146492871
 20
-363.185733320738
 30
0.0
 10
-145.4959091729966
 20
-363.2515781618337
 30
0.0
 10
-145.6700865596798
 20
-363.4046698246214
 30
0.0
 10
-145.7543394290252
 20
-363.493117468286
 30
0.0
 10
-145.9095330426058
 20
-363.6859257218501
 30
0.0
 10
-145.9806723538178
 20
-363.7900489267842
 30
0.0
 10
-146.1102051282928
 20
-364.0135360418675
 30
0.0
 10
-146.1683518907822
 20
-364.1330109532304
 30
0.0
 10
-146.3161863968178
 20
-364.4989320522174
 30
0.0
 10
-146.3827679329874
 20
-364.7620440353207
 30
0.0
 10
-146.4417055471271
 20
-365.2776846888656
 30
0.0
 10
-146.4344915851002
 20
-365.538273447085
 30
0.0
 10
-146.3918462702652
 20
-365.7726981849594
 30
0.0
  0
LWPOLYLINE
  5
192
330
160
100
AcDbEntity
  8
0
  6
Continuous
 62
     7
370
    25
100
AcDbPolyline
 90
       23
 70
   128
 43
0.0
 10
-146.3918462703
 20
-365.772698185
 10
-151.7837751127
 20
-365.5922091287
 10
-157.2773721751
 20
-365.0895402417
 10
-162.8629866617
 20
-364.2655745802
 10
-168.5308061261
 20
-363.1217596336
 10
-174.2708737097
 20
-361.6601047822
 10
-180.0731056332
 20
-359.8831777667
 10
-185.9273089108
 20
-357.7941001774
 10
-191.8231992569
 20
-355.3965419707
 10
-197.7504191527
 20
-352.6947150218
 10
-203.6985560417
 20
-349.6933657255
 10
-209.6571606218
 20
-346.3977666582
 10
-215.6157652019
 20
-342.813707315
 10
-221.5639020909
 20
-338.9474839396
 10
-227.4911219867
 20
-334.8058884631
 10
-233.3870123328
 20
-330.3961965726
 10
-239.2412156104
 20
-325.7261549295
 10
-245.0434475339
 20
-320.8039675609
 10
-250.7835151176
 20
-315.6382814471
 10
-256.451334582
 20
-310.2381713314
 10
-262.0369490685
 20
-304.6131237779
 10
-267.5305461309
 20
-298.7730205063
 10
-272.9224749734
 20
-292.7281210322
  0
SPLINE
  5
195
330
160
100
AcDbEntity
  8
0
  6
Continuous
 62
     7
370
    25
100
AcDbSpline
210
0.0
220
0.0
230
1.0
 70
     8
 71
     3
 72
    18
 73
    14
 74
     0
 42
0.000000001
 43
0.00000001
 40
0.0
 40
0.0
 40
0.0
 40
0.0
 40
0.1250000000000087
 40
0.1250000000000087
 40
0.2500000000000174
 40
0.2500000000000174
 40
0.3750000000000261
 40
0.3750000000000261
 40
0.5000000000000347
 40
0.5000000000000347
 40
0.7500000000000173
 40
0.7500000000000173
 40
1.0
 40
1.0
 40
1.0
 40
1.0
 10
-271.1754505850412
 20
-290.4707588968774
 30
0.0
 10
-271.2701217004922
 20
-290.5254113685168
 30
0.0
 10
-271.3653572133351
 20
-290.5886924811563
 30
0.0
 10
-271.5569062275094
 20
-290.7317557168543
 30
0.0
 10
-271.6543206601863
 20
-290.812605351736
 30
0.0
 10
-271.8436322058535
 20
-290.9857177423448
 30
0.0
 10
-271.935611538294
 20
-291.0778102591038
 30
0.0
 10
-272.1142799015754
 20
-291.2729320025433
 30
0.0
 10
-272.2008057121155
 20
-291.3760240381857
 30
0.0
 10
-272.4412970671937
 20
-291.6884554767798
 30
0.0
 10
-272.5820353018437
 20
-291.9087577090817
 30
0.0
 10
-272.7998002840998
 20
-292.3327092746699
 30
0.0
 10
-272.8798296585256
 20
-292.5429335267933
 30
0.0
 10
-272.9224749733583
 20
-292.7281210322051
 30
0.0
  0
LWPOLYLINE
  5
196
330
160
100
AcDbEntity
  8
0
  6
Continuous
 62
     7
370
    25
100
AcDbPolyline
 90
       23
 70
   128
 43
0.0
 10
-271.175450585
 20
-290.4707588969
 10
-265.8156046556
 20
-296.4966872692
 10
-260.3535843821
 20
-302.3183157888
 10
-254.799083226
 20
-307.9253127965
 10
-249.1619587749
 20
-313.3077275403
 10
-243.4522152481
 20
-318.4560078349
 10
-237.6799857423
 20
-323.3610170139
 10
-231.8555142478
 20
-328.0140501449
 10
-225.9891374695
 20
-332.4068494779
 10
-220.0912664812
 20
-336.5316191007
 10
-214.1723682499
 20
-340.3810387739
 10
-208.2429470594
 20
-343.9482769226
 10
-202.313525869
 20
-347.2270027599
 10
-196.3946276377
 20
-350.2113975228
 10
-190.4967566494
 20
-352.896164798
 10
-184.630379871
 20
-355.2765399222
 10
-178.8059083766
 20
-357.3482984374
 10
-173.0336788707
 20
-359.1077635886
 10
-167.323935344
 20
-360.5518128484
 10
-161.6868108929
 20
-361.6778834588
 10
-156.1323097368
 20
-362.4839769793
 10
-150.6702894633
 20
-362.9686628339
 10
-145.3104435338
 20
-363.1310808491
  0
SPLINE
  5
197
330
160
100
AcDbEntity
  8
0
  6
Continuous
 62
     7
370
    25
100
AcDbSpline
210
0.0
220
0.0
230
1.0
 70
     8
 71
     3
 72
    14
 73
    10
 74
     0
 42
0.000000001
 43
0.00000001
 40
0.0
 40
0.0
 40
0.0
 40
0.0
 40
0.0111574513759106
 40
0.0254508360270004
 40
0.0520046992584465
 40
0.1445453457937126
 40
0.3655784636978532
 40
0.589257654461517
 40
1.0
 40
1.0
 40
1.0
 40
1.0
 10
-269.7612370226681
 20
-289.6543507850548
 30
0.0
 10
-269.7378681153757
 20
-289.6449775710832
 30
0.0
 10
-269.684562193836
 20
-289.6235966908268
 30
0.0
 10
-269.5528839534385
 20
-289.6379467579065
 30
0.0
 10
-269.2270659680582
 20
-289.7651851233481
 30
0.0
 10
-268.4811761565005
 20
-290.3125506113822
 30
0.0
 10
-267.4326180622338
 20
-291.2902302712271
 30
0.0
 10
-265.8304632786976
 20
-292.9201797887275
 30
0.0
 10
-264.7252108142582
 20
-294.1745128481546
 30
0.0
 10
-264.0096392838494
 20
-294.9866033486104
 30
0.0
  0
LWPOLYLINE
  5
199
330
160
100
AcDbEntity
  8
0
  6
Continuous
 62
     7
370
    25
100
AcDbPolyline
 90
       21
 70
   128
 43
0.0
 10
-254.5922492475
 20
-290.7281083951
 10
-250.2930614103
 20
-295.9457475914
 10
-245.3168995984
 20
-301.6525949722
 10
-240.2281926808
 20
-307.1440679412
 10
-235.0387765064
 20
-312.4073938535
 10
-229.7607211648
 20
-317.4303307127
 10
-224.4063029115
 20
-322.2011956446
 10
-218.9879756151
 20
-326.7088920702
 10
-213.5183417905
 20
-330.9429355157
 10
-208.0101232867
 20
-334.8934779978
 10
-202.476131697
 20
-338.55133093
 10
-196.9292385605
 20
-341.9079864934
 10
-191.3823454239
 20
-344.9556374259
 10
-185.8483538342
 20
-347.6871951809
 10
-180.3401353304
 20
-350.0963064142
 10
-174.8705015058
 20
-352.1773677618
 10
-169.4521742094
 20
-353.9255388727
 10
-164.0977559561
 20
-355.3367536668
 10
-158.8197006145
 20
-356.4077297924
 10
-153.6302844401
 20
-357.1359762608
 10
-150.0446571613
 20
-357.4416454489
  0
LWPOLYLINE
  5
1B6
330
160
100
AcDbEntity
  8
0
  6
Continuous
 62
     7
370
    25
100
AcDbPolyline
 90
       23
 70
   128
 43
0.0
 10
-272.9224749734
 20
-287.8288761609
 10
-267.5305461309
 20
-288.0093652171
 10
-262.0369490685
 20
-288.5120341041
 10
-256.451334582
 20
-289.3359997657
 10
-250.7835151176
 20
-290.4798147122
 10
-245.0434475339
 20
-291.9414695636
 10
-239.2412156104
 20
-293.7183965792
 10
-233.3870123328
 20
-295.8074741685
 10
-227.4911219867
 20
-298.2050323752
 10
-221.5639020909
 20
-300.9068593241
 10
-215.6157652019
 20
-303.9082086203
 10
-209.6571606218
 20
-307.2038076877
 10
-203.6985560417
 20
-310.7878670308
 10
-197.7504191527
 20
-314.6540904062
 10
-191.8231992569
 20
-318.7956858827
 10
-185.9273089108
 20
-323.2053777732
 10
-180.0731056332
 20
-327.8754194163
 10
-174.2708737097
 20
-332.797606785
 10
-168.5308061261
 20
-337.9632928987
 10
-162.8629866617
 20
-343.3634030145
 10
-157.2773721751
 20
-348.988450568
 10
-151.7837751127
 20
-354.8285538396
 10
-146.3918462703
 20
-360.8734533136
  0
SPLINE
  5
1BA
330
160
100
AcDbEntity
  8
0
  6
Continuous
 62
     7
370
    25
100
AcDbSpline
210
0.0
220
0.0
230
1.0
 70
     8
 71
     3
 72
    11
 73
     7
 74
     0
 42
0.000000001
 43
0.00000001
 40
0.0
 40
0.0
 40
0.0
 40
0.0
 40
0.0083826753659975
 40
0.316644911695244
 40
0.7434029392756982
 40
1.0
 40
1.0
 40
1.0
 40
1.0
 10
-146.3918462702653
 20
-360.8734533136452
 30
0.0
 10
-146.3925621324913
 20
-360.8765860359032
 30
0.0
 10
-146.4196029185695
 20
-360.9949206390517
 30
0.0
 10
-146.446070467342
 20
-361.2499174385525
 30
0.0
 10
-146.391459628168
 20
-361.5293374571315
 30
0.0
 10
-146.2497536372585
 20
-361.6048178759504
 30
0.0
 10
-146.1965436131046
 20
-361.6331604667098
 30
0.0
  0
SPLINE
  5
1BC
330
160
100
AcDbEntity
  8
0
  6
Continuous
 62
     7
370
    25
100
AcDbSpline
210
0.0
220
0.0
230
1.0
 70
     8
 71
     3
 72
    12
 73
     8
 74
     0
 42
0.000000001
 43
0.00000001
 40
0.0
 40
0.0
 40
0.0
 40
0.0
 40
0.005739387218172
 40
0.2167980602296702
 40
0.5089875417266275
 40
0.7939386420095159
 40
1.0
 40
1.0
 40
1.0
 40
1.0
 10
-272.9224749733582
 20
-287.8288761608911
 30
0.0
 10
-272.9217461230888
 20
-287.8328422570068
 30
0.0
 10
-272.8942147301694
 20
-287.9826564988204
 30
0.0
 10
-272.7952791148634
 20
-288.3164311484429
 30
0.0
 10
-272.5275598285159
 20
-288.7210925790238
 30
0.0
 10
-272.1625315089797
 20
-288.9821903460768
 30
0.0
 10
-271.8898025005498
 20
-288.9882589237413
 30
0.0
 10
-271.7753473398028
 20
-288.990805700984
 30
0.0
  0
LWPOLYLINE
  5
1BD
330
160
100
AcDbEntity
  8
0
  6
Continuous
 62
     8
370
    25
100
AcDbPolyline
 90
       23
 70
   128
 43
0.0
 10
-145.0815294786
 20
-362.306405395
 10
-149.2560759009
 20
-362.152254722
 10
-154.7180961745
 20
-361.6675688675
 10
-160.2725973305
 20
-360.8614753469
 10
-165.9097217816
 20
-359.7354047366
 10
-171.6194653084
 20
-358.2913554768
 10
-177.3916948143
 20
-356.5318903256
 10
-183.2161663087
 20
-354.4601318103
 10
-189.082543087
 20
-352.0797566862
 10
-194.9804140753
 20
-349.3949894109
 10
-200.8993123066
 20
-346.4105946481
 10
-206.8287334971
 20
-343.1318688108
 10
-212.7581546875
 20
-339.5646306621
 10
-218.6770529188
 20
-335.7152109888
 10
-224.5749239071
 20
-331.5904413661
 10
-230.4413006855
 20
-327.197642033
 10
-236.2657721799
 20
-322.5446089021
 10
-242.0380016858
 20
-317.6395997231
 10
-247.7477452125
 20
-312.4913194285
 10
-253.3848696636
 20
-307.1089046847
 10
-258.9393708197
 20
-301.5019076769
 10
-264.4013910932
 20
-295.6802791573
 10
-269.7612370227
 20
-289.6543507851
  0
LINE
  5
1CA
330
160
100
AcDbEntity
  8
0
  6
Continuous
 62
     7
370
    25
100
AcDbLine
 10
-328.1980515339
 20
-258.427005908
 30
0.0
 11
-328.1980515339
 21
-620.9711263852
 31
0.0
  0
LINE
  5
1CB
330
160
100
AcDbEntity
  8
0
  6
Continuous
 62
     7
370
    25
100
AcDbLine
 10
-324.8548245161
 20
-625.9688565573
 30
0.0
 11
-93.6309070681
 21
-759.4515828403
 31
0.0
  0
LINE
  5
1CC
330
160
100
AcDbEntity
  8
0
  6
Continuous
 62
     7
370
    25
100
AcDbLine
 10
-80.3173611038
 20
-759.4515828403
 30
0.0
 11
-74.6605068543
 21
-756.185950393
 31
0.0
  0
LINE
  5
1CD
330
160
100
AcDbEntity
  8
0
  6
Continuous
 62
     7
370
    25
100
AcDbLine
 10
-328.1980515339
 20
518.9198470073
 30
0.0
 11
-328.1980515339
 21
-253.5277610366
 31
0.0
  0
LINE
  5
1CE
330
160
100
AcDbEntity
  8
0
  6
Continuous
 62
     7
370
    25
100
AcDbLine
 10
-319.1979702666
 20
527.1832096266
 30
0.0
 11
-324.8548245161
 21
523.9175771793
 31
0.0
  0
LINE
  5
1CF
330
160
100
AcDbEntity
  8
0
  6
Continuous
 62
     7
370
    25
100
AcDbLine
 10
-146.2098329388
 20
-361.6550496719
 30
0.0
 11
-93.6309070681
 21
-392.0082174917
 31
0.0
  0
LINE
  5
1D0
330
160
100
AcDbEntity
  8
0
  6
Continuous
 62
     7
370
    25
100
AcDbLine
 10
-80.3173611038
 20
-392.0082174917
 30
0.0
 11
-74.6605068543
 21
-388.7425850444
 31
0.0
  0
LINE
  5
1D1
330
160
100
AcDbEntity
  8
0
  6
Continuous
 62
     7
370
    25
100
AcDbLine
 10
-324.8548245161
 20
-258.5254912087
 30
0.0
 11
-272.2758986453
 21
-288.8786590285
 31
0.0
  0
LINE
  5
1D2
330
160
100
AcDbEntity
  8
0
  6
Continuous
 62
     7
370
    25
100
AcDbLine
 10
-320.6729252681
 20
528.5129077213
 30
0.0
 11
-73.1855518528
 21
385.6414881523
 31
0.0
  0
LINE
  5
1D3
330
160
100
AcDbEntity
  8
0
  6
Continuous
 62
     7
370
    25
100
AcDbLine
 10
-85.9134739142
 20
392.9891611587
 30
0.0
 11
126.2185604418
 21
515.4503779322
 31
0.0
  0
LINE
  5
1D4
330
160
100
AcDbEntity
  8
0
  6
Continuous
 62
     7
370
    25
100
AcDbLine
 10
138.9464825032
 20
508.1027049257
 30
0.0
 11
-108.5408909121
 21
650.9741244947
 31
0.0
  0
LINE
  5
1D5
330
160
100
AcDbEntity
  8
0
  6
Continuous
 62
     7
370
    25
100
AcDbLine
 10
-73.1855518528
 20
385.6414881523
 30
0.0
 11
138.9464825032
 21
508.1027049257
 31
0.0
  0
LINE
  5
1D6
330
160
100
AcDbEntity
  8
0
  6
Continuous
 62
     7
370
    25
100
AcDbLine
 10
-75.0747064696
 20
-756.4250627412
 30
0.0
 11
-73.1855518528
 21
-757.5156484877
 31
0.0
  0
LINE
  5
1D7
330
160
100
AcDbEntity
  8
0
  6
Continuous
 62
     7
370
    25
100
AcDbLine
 10
-73.1855518528
 20
-757.5156484877
 30
0.0
 11
-73.1855518528
 21
385.6414881523
 31
0.0
  0
LINE
  5
1D8
330
160
100
AcDbEntity
  8
0
  6
Continuous
 62
     7
370
    25
100
AcDbLine
 10
138.9464825032
 20
508.1027049257
 30
0.0
 11
138.9464825032
 21
-635.0544317143
 31
0.0
  0
LINE
  5
1D9
330
160
100
AcDbEntity
  8
0
  6
Continuous
 62
     7
370
    25
100
AcDbLine
 10
138.9464825032
 20
-635.0544317143
 30
0.0
 11
-73.1855518528
 21
-757.5156484877
 31
0.0
  0
LINE
  5
1DA
330
160
100
AcDbEntity
  8
0
  6
Continuous
 62
     7
370
    25
100
AcDbLine
 10
-307.9450032067
 20
521.1652347149
 30
0.0
 11
-95.8129688508
 21
643.6264514883
 31
0.0
  0
LINE
  5
1DB
330
160
100
AcDbEntity
  8
0
  6
Continuous
 62
     7
370
    25
100
AcDbLine
 10
-79.9030662741
 20
-395.9917727501
 30
0.0
 11
-79.9030662741
 21
-758.5358932274
 31
0.0
  0
LINE
  5
1DC
330
160
100
AcDbEntity
  8
0
  6
Continuous
 62
     7
370
    25
100
AcDbLine
 10
-94.0452018978
 20
-758.5358932274
 30
0.0
 11
-94.0452018978
 21
-395.9917727501
 31
0.0
  0
LINE
  5
1DD
330
160
100
AcDbEntity
  8
0
  6
Continuous
 62
     7
370
    25
100
AcDbLine
 10
-145.3104435338
 20
-363.1310808491
 30
0.0
 11
-92.6309883354
 21
-393.5422830145
 31
0.0
  0
LINE
  5
1DE
330
160
100
AcDbEntity
  8
0
  6
Continuous
 62
     7
370
    25
100
AcDbLine
 10
-144.4817192207
 20
-362.6526684864
 30
0.0
 11
-145.3104435338
 21
-363.1310808491
 31
0.0
  0
LINE
  5
1DF
330
160
100
AcDbEntity
  8
0
  6
Continuous
 62
     7
370
    25
100
AcDbLine
 10
-75.660425587
 20
-390.2766505672
 30
0.0
 11
-76.4891499001
 21
-389.7982382045
 31
0.0
  0
LINE
  5
1E0
330
160
100
AcDbEntity
  8
0
  6
Continuous
 62
     7
370
    25
100
AcDbLine
 10
-81.3172798365
 20
-393.5422830145
 30
0.0
 11
-75.660425587
 21
-390.2766505672
 31
0.0
  0
LINE
  5
1E1
330
160
100
AcDbEntity
  8
0
  6
Continuous
 62
     7
370
    25
100
AcDbLine
 10
-74.2462120246
 20
-392.7261403028
 30
0.0
 11
-79.9030662741
 21
-395.9917727501
 31
0.0
  0
LINE
  5
1E2
330
160
100
AcDbEntity
  8
0
  6
Continuous
 62
     7
370
    25
100
AcDbLine
 10
-94.0452018978
 20
-395.9917727501
 30
0.0
 11
-146.3918462703
 21
-365.772698185
 31
0.0
  0
LINE
  5
1E3
330
160
100
AcDbEntity
  8
0
  6
Continuous
 62
     7
370
    25
100
AcDbLine
 10
-74.2462120246
 20
-755.2702607801
 30
0.0
 11
-74.2462120246
 21
-392.7261403028
 31
0.0
  0
LINE
  5
1E4
330
160
100
AcDbEntity
  8
0
  6
Continuous
 62
     7
370
    25
100
AcDbLine
 10
-79.9030662741
 20
-758.5358932274
 30
0.0
 11
-74.2462120246
 21
-755.2702607801
 31
0.0
  0
LINE
  5
1E5
330
160
100
AcDbEntity
  8
0
  6
Continuous
 62
     7
370
    25
100
AcDbLine
 10
-272.9224749734
 20
-292.7281210322
 30
0.0
 11
-325.2691193458
 21
-262.5090464671
 31
0.0
  0
LINE
  5
1E6
330
160
100
AcDbEntity
  8
0
  6
Continuous
 62
     7
370
    25
100
AcDbLine
 10
-325.2691193458
 20
-625.0531669443
 30
0.0
 11
-94.0452018978
 21
-758.5358932274
 31
0.0
  0
LINE
  5
1E7
330
160
100
AcDbEntity
  8
0
  6
Continuous
 62
     7
370
    25
100
AcDbLine
 10
-325.2691193458
 20
-262.5090464671
 30
0.0
 11
-325.2691193458
 21
-625.0531669443
 31
0.0
  0
LINE
  5
1E8
330
160
100
AcDbEntity
  8
0
  6
Continuous
 62
     7
370
    25
100
AcDbLine
 10
-268.7825723804
 20
-289.0893797128
 30
0.0
 11
-271.175450585
 21
-290.4707588969
 31
0.0
  0
LINE
  5
1E9
330
160
100
AcDbEntity
  8
0
  6
Continuous
 62
     7
370
    25
100
AcDbLine
 10
-323.8549057834
 20
-260.0595567315
 30
0.0
 11
-271.175450585
 21
-290.4707588969
 31
0.0
  0
LINE
  5
1EA
330
160
100
AcDbEntity
  8
0
  6
Continuous
 62
     7
370
    25
100
AcDbLine
 10
-320.6729252681
 20
526.3317362284
 30
0.0
 11
-320.6729252681
 21
528.5129077213
 31
0.0
  0
LINE
  5
1EB
330
160
100
AcDbEntity
  8
0
  6
Continuous
 62
     7
370
    25
100
AcDbLine
 10
-320.6729252681
 20
528.5129077213
 30
0.0
 11
-108.5408909121
 21
650.9741244947
 31
0.0
  0
LINE
  5
1EC
330
160
100
AcDbEntity
  8
0
  6
Continuous
 62
     7
370
    25
100
AcDbLine
 10
-94.0452018978
 20
-391.0925278788
 30
0.0
 11
-94.0452018978
 21
381.3550801651
 31
0.0
  0
LINE
  5
1ED
330
160
100
AcDbEntity
  8
0
  6
Continuous
 62
     7
370
    25
100
AcDbLine
 10
-79.9030662741
 20
381.3550801651
 30
0.0
 11
-79.9030662741
 21
-391.0925278788
 31
0.0
  0
LINE
  5
1EE
330
160
100
AcDbEntity
  8
0
  6
Continuous
 62
     7
370
    25
100
AcDbLine
 10
-323.8549057834
 20
517.2872961838
 30
0.0
 11
-92.6309883354
 21
383.8045699007
 31
0.0
  0
LINE
  5
1EF
330
160
100
AcDbEntity
  8
0
  6
Continuous
 62
     7
370
    25
100
AcDbLine
 10
-318.1980515339
 20
527.0841935256
 30
0.0
 11
-323.8549057834
 21
523.8185610783
 31
0.0
  0
LINE
  5
1F0
330
160
100
AcDbEntity
  8
0
  6
Continuous
 62
     7
370
    25
100
AcDbLine
 10
-81.3172798365
 20
383.8045699007
 30
0.0
 11
-75.660425587
 21
387.070202348
 31
0.0
  0
LINE
  5
1F1
330
160
100
AcDbEntity
  8
0
  6
Continuous
 62
     7
370
    25
100
AcDbLine
 10
-74.2462120246
 20
384.6207126124
 30
0.0
 11
-79.9030662741
 21
381.3550801651
 31
0.0
  0
LINE
  5
1F2
330
160
100
AcDbEntity
  8
0
  6
Continuous
 62
     7
370
    25
100
AcDbLine
 10
-94.0452018978
 20
381.3550801651
 30
0.0
 11
-325.2691193458
 21
514.8378064482
 31
0.0
  0
LINE
  5
1F3
330
160
100
AcDbEntity
  8
0
  6
Continuous
 62
     7
370
    25
100
AcDbLine
 10
-79.9030662741
 20
-391.0925278788
 30
0.0
 11
-74.2462120246
 21
-387.8268954315
 31
0.0
  0
LINE
  5
1F4
330
160
100
AcDbEntity
  8
0
  6
Continuous
 62
     7
370
    25
100
AcDbLine
 10
-74.2462120246
 20
-387.8268954315
 30
0.0
 11
-74.2462120246
 21
384.6207126124
 31
0.0
  0
LINE
  5
1F5
330
160
100
AcDbEntity
  8
0
  6
Continuous
 62
     7
370
    25
100
AcDbLine
 10
-146.3918462703
 20
-360.8734533136
 30
0.0
 11
-94.0452018978
 21
-391.0925278788
 31
0.0
  0
LINE
  5
1F6
330
160
100
AcDbEntity
  8
0
  6
Continuous
 62
     7
370
    25
100
AcDbLine
 10
-325.2691193458
 20
-257.6098015958
 30
0.0
 11
-272.9224749734
 21
-287.8288761609
 31
0.0
  0
LINE
  5
1F7
330
160
100
AcDbEntity
  8
0
  6
Continuous
 62
     7
370
    25
100
AcDbLine
 10
-325.2691193458
 20
514.8378064482
 30
0.0
 11
-325.2691193458
 21
-257.6098015958
 31
0.0
  0
ARC
  5
1F8
330
160
100
AcDbEntity
  8
0
  6
Continuous
 62
     7
370
    25
100
AcDbCircle
 10
-86.9741340859
 20
-382.3446619005
 30
0.0
 40
15.37021907911694
100
AcDbArc
 50
242.6096722366
 51
297.3903277634
  0
ARC
  5
1F9
330
160
100
AcDbEntity
  8
0
  6
Continuous
 62
     7
370
    25
100
AcDbCircle
 10
-90.9747696951
 20
-396.1314944546
 30
0.0
 40
3.073609615144289
100
AcDbArc
 50
122.60547834
 51
177.3945215143
  0
ARC
  5
1FA
330
160
100
AcDbEntity
  8
0
  6
Continuous
 62
     7
370
    25
100
AcDbCircle
 10
-86.9741340859
 20
-382.6245943349
 30
0.0
 40
12.29617526329382
100
AcDbArc
 50
242.6096722366
 51
297.3903277634
  0
ARC
  5
1FB
330
160
100
AcDbEntity
  8
0
  6
Continuous
 62
     7
370
    25
100
AcDbCircle
 10
-82.9734984768
 20
-396.1314944546
 30
0.0
 40
3.073609615144173
100
AcDbArc
 50
2.6054784857
 51
57.39452166
  0
ARC
  5
1FC
330
160
100
AcDbEntity
  8
0
  6
Continuous
 62
     7
370
    25
100
AcDbCircle
 10
-86.9741340859
 20
-744.8887823778
 30
0.0
 40
15.37021907911794
100
AcDbArc
 50
242.6096722366
 51
297.3903277634
  0
ARC
  5
1FD
330
160
100
AcDbEntity
  8
0
  6
Continuous
 62
     7
370
    25
100
AcDbCircle
 10
-77.3166442273
 20
-392.8658620073
 30
0.0
 40
3.073609615144346
100
AcDbArc
 50
2.6054784857
 51
57.39452166
  0
ARC
  5
1FE
330
160
100
AcDbEntity
  8
0
  6
Continuous
 62
     7
370
    25
100
AcDbCircle
 10
-322.1986871431
 20
-262.6487681716
 30
0.0
 40
3.073609615144531
100
AcDbArc
 50
122.60547834
 51
177.3945215143
  0
ARC
  5
1FF
330
160
100
AcDbEntity
  8
0
  6
Continuous
 62
     7
370
    25
100
AcDbCircle
 10
-75.197583136
 20
-755.3913888375
 30
0.0
 40
0.959051092398349
100
AcDbArc
 50
304.0563508157
 51
7.2558295777
  0
ARC
  5
200
330
160
100
AcDbEntity
  8
0
  6
Continuous
 62
     7
370
    25
100
AcDbCircle
 10
-86.9741340859
 20
394.7222585804
 30
0.0
 40
12.29617526329428
100
AcDbArc
 50
242.6096722366
 51
297.3903277634
  0
ARC
  5
201
330
160
100
AcDbEntity
  8
0
  6
Continuous
 62
     7
370
    25
100
AcDbCircle
 10
-82.9734984768
 20
381.2153584606
 30
0.0
 40
3.073609615143777
100
AcDbArc
 50
2.6054784857
 51
57.39452166
  0
ARC
  5
202
330
160
100
AcDbEntity
  8
0
  6
Continuous
 62
     7
370
    25
100
AcDbCircle
 10
-86.9741340859
 20
395.0021910147
 30
0.0
 40
15.37021907911776
100
AcDbArc
 50
242.6096722366
 51
297.3903277634
  0
ARC
  5
203
330
160
100
AcDbEntity
  8
0
  6
Continuous
 62
     7
370
    25
100
AcDbCircle
 10
-90.9747696951
 20
381.2153584606
 30
0.0
 40
3.073609615143704
100
AcDbArc
 50
122.60547834
 51
177.3945215144
  0
ARC
  5
204
330
160
100
AcDbEntity
  8
0
  6
Continuous
 62
     7
370
    25
100
AcDbCircle
 10
-86.9741340859
 20
-377.4454170292
 30
0.0
 40
15.37021907911682
100
AcDbArc
 50
242.6096722366
 51
297.3903277634
  0
ARC
  5
205
330
160
100
AcDbEntity
  8
0
  6
Continuous
 62
     7
370
    25
100
AcDbCircle
 10
-322.6154895691
 20
520.552928631
 30
0.0
 40
3.492922534674103
100
AcDbArc
 50
110.7834207995
 51
249.2165792005
  0
ARC
  5
206
330
160
100
AcDbEntity
  8
0
  6
Continuous
 62
     7
370
    25
100
AcDbCircle
 10
-77.3166442273
 20
384.4809909079
 30
0.0
 40
3.073609615143763
100
AcDbArc
 50
2.6054784857
 51
57.39452166
  0
ARC
  5
207
330
160
100
AcDbEntity
  8
0
  6
Continuous
 62
     7
370
    25
100
AcDbCircle
 10
-322.1986871431
 20
514.6980847436
 30
0.0
 40
3.073609615143924
100
AcDbArc
 50
122.60547834
 51
177.3945215143
  0
ARC
  5
208
330
160
100
AcDbEntity
  8
0
  6
Continuous
 62
     7
370
    25
100
AcDbCircle
 10
-318.7838916436
 20
526.2664308674
 30
0.0
 40
1.005954471803079
100
AcDbArc
 50
54.3824225248
 51
114.3071190461
  0
ARC
  5
209
330
160
100
AcDbEntity
  8
0
  6
Continuous
 62
     7
370
    25
100
AcDbCircle
 10
-75.1975831365
 20
-387.9480234887
 30
0.0
 40
0.9590510928682588
100
AcDbArc
 50
304.056350833
 51
7.2558295604
  0
ARC
  5
20A
330
160
100
AcDbEntity
  8
0
  6
Continuous
 62
     8
370
    25
100
AcDbCircle
 10
-321.6843643131
 20
-255.8302817745
 30
0.0
 40
4.753737154699751
100
AcDbArc
 50
205.4991460478
 51
242.8322736657
  0
ARC
  5
20B
330
160
100
AcDbEntity
  8
0
  6
Continuous
 62
     8
370
    25
100
AcDbCircle
 10
-323.1821276616
 20
-257.914527385
 30
0.0
 40
5.046299623073406
100
AcDbArc
 50
186.3182548442
 51
245.57078564
  0
ARC
  5
20C
330
160
100
AcDbEntity
  8
0
  6
Continuous
 62
     8
370
    25
100
AcDbCircle
 10
-323.193480909
 20
-620.4720626162
 30
0.0
 40
5.029392784938322
100
AcDbArc
 50
185.6947992512
 51
245.6253417064
  0
ARC
  5
20D
330
160
100
AcDbEntity
  8
0
  6
Continuous
 62
     8
370
    25
100
AcDbCircle
 10
-93.0438351888
 20
-758.6344244218
 30
0.0
 40
1.006202604984823
100
AcDbArc
 50
174.3803731864
 51
234.2933295521
  0
ARC
  5
20E
330
160
100
AcDbEntity
  8
0
  6
Continuous
 62
     8
370
    25
100
AcDbCircle
 10
-80.904432561
 20
-758.634424498
 30
0.0
 40
1.006202192384416
100
AcDbArc
 50
305.7065938507
 51
5.6196334884
  0
ARC
  5
20F
330
160
100
AcDbEntity
  8
0
  6
Continuous
 62
     8
370
    25
100
AcDbCircle
 10
-324.2891155412
 20
-625.1613404191
 30
0.0
 40
0.9859558599067427
100
AcDbArc
 50
173.7011524782
 51
234.9866671284
  0
ARC
  5
210
330
160
100
AcDbEntity
  8
0
  6
Continuous
 62
     8
370
    25
100
AcDbCircle
 10
-323.1821276616
 20
519.4323255303
 30
0.0
 40
5.04629962307328
100
AcDbArc
 50
186.3182548442
 51
245.57078564
  0
ARC
  5
211
330
160
100
AcDbEntity
  8
0
  6
Continuous
 62
     8
370
    25
100
AcDbCircle
 10
-324.4353262411
 20
523.0553694336
 30
0.0
 40
0.9588270930092937
100
AcDbArc
 50
52.7463828221
 51
115.9586496182
  0
ARC
  5
212
330
160
100
AcDbEntity
  8
0
  6
Continuous
 62
     8
370
    25
100
AcDbCircle
 10
-323.193480909
 20
-253.0286972677
 30
0.0
 40
5.029392784938183
100
AcDbArc
 50
185.6947992512
 51
245.6253417064
  0
ARC
  5
213
330
160
100
AcDbEntity
  8
0
  6
Continuous
 62
     8
370
    25
100
AcDbCircle
 10
-80.8543528034
 20
-391.2136759664
 30
0.0
 40
0.9589697179959078
100
AcDbArc
 50
304.0381708601
 51
7.2576550041
  0
ARC
  5
214
330
160
100
AcDbEntity
  8
0
  6
Continuous
 62
     8
370
    25
100
AcDbCircle
 10
-93.0939149051
 20
-391.2136758566
 30
0.0
 40
0.9589701638303164
100
AcDbArc
 50
172.742354997
 51
235.9617295032
  0
ARC
  5
215
330
160
100
AcDbEntity
  8
0
  6
Continuous
 62
     8
370
    25
100
AcDbCircle
 10
-324.3177482341
 20
-257.730929653
 30
0.0
 40
0.9590510927433143
100
AcDbArc
 50
172.744170435
 51
235.9436491716
  0
VIEWPORT
  5
21C
330
160
100
AcDbEntity
  8
0
100
AcDbViewport
 10
0.0
 20
0.0
 30
0.0
 40
205.6
 41
156.0
 68
     1
 69
     1
 12
0.0
 22
-1.0
 13
0.0
 23
0.0
 14
10.0
 24
10.0
 15
10.0
 25
10.0
 16
0.0
 26
0.0
 36
1.0
 17
0.0
 27
0.0
 37
0.0
 42
50.0
 43
0.0
 44
0.0
 45
1428.0
 50
0.0
 51
0.0
 72
   100
 90
   557152
  1

281
     0
 71
     1
 74
     0
110
0.0
120
0.0
130
0.0
111
1.0
121
0.0
131
0.0
112
0.0
122
1.0
132
0.0
 79
     0
146
0.0
  0
ENDBLK
  5
163
330
160
100
AcDbEntity
  8
0
100
AcDbBlockEnd
  0
ENDSEC
  0
SECTION
  2
ENTITIES
  0
SPLINE
  5
7A
330
1F
100
AcDbEntity
  8
0
  6
Continuous
 62
     7
370
    25
100
AcDbSpline
210
0.0
220
0.0
230
1.0
 70
     8
 71
     3
 72
    18
 73
    14
 74
     0
 42
0.000000001
 43
0.00000001
 40
0.0
 40
0.0
 40
0.0
 40
0.0
 40
0.1249999999999908
 40
0.1249999999999908
 40
0.2499999999999816
 40
0.2499999999999816
 40
0.3749999999999724
 40
0.3749999999999724
 40
0.4999999999999631
 40
0.4999999999999631
 40
0.7499999999999816
 40
0.7499999999999816
 40
1.0
 40
1.0
 40
1.0
 40
1.0
 10
89.00000000000004
 20
-252.9999999999995
 30
0.0
 10
89.00000000000003
 20
-252.9999999999995
 30
0.0
 10
89.00314025353133
 20
-253.0133080301914
 30
0.0
 10
89.01542384913057
 20
-253.0653725075865
 30
0.0
 10
89.0247304798132
 20
-253.1048212261707
 30
0.0
 10
89.04885550095172
 20
-253.2071076315515
 30
0.0
 10
89.06359162128251
 20
-253.2695964451019
 30
0.0
 10
89.09833572932503
 20
-253.4169792368385
 30
0.0
 10
89.11840274664537
 20
-253.5021245512525
 30
0.0
 10
89.18392103292676
 20
-253.7802348324925
 30
0.0
 10
89.23635773729266
 20
-254.0029616417004
 30
0.0
 10
89.34866564632584
 20
-254.4804976074353
 30
0.0
 10
89.41035600114331
 20
-254.7430549476664
 30
0.0
 10
89.47066558375448
 20
-254.9999999999996
 30
0.0
  0
SPLINE
  5
91
330
1F
100
AcDbEntity
  8
0
  6
Continuous
 62
     7
370
    25
100
AcDbSpline
210
0.0
220
0.0
230
1.0
 70
     8
 71
     3
 72
    18
 73
    14
 74
     0
 42
0.000000001
 43
0.00000001
 40
0.0
 40
0.0
 40
0.0
 40
0.0
 40
0.1250000000000087
 40
0.1250000000000087
 40
0.2500000000000174
 40
0.2500000000000174
 40
0.3750000000000261
 40
0.3750000000000261
 40
0.5000000000000347
 40
0.5000000000000347
 40
0.7500000000000173
 40
0.7500000000000173
 40
1.0
 40
1.0
 40
1.0
 40
1.0
 10
-88.99999999999993
 20
-252.9999999999995
 30
0.0
 10
-88.99999999999993
 20
-252.9999999999995
 30
0.0
 10
-89.0031402535313
 20
-253.0133080301914
 30
0.0
 10
-89.01542384913053
 20
-253.0653725075865
 30
0.0
 10
-89.02473047981317
 20
-253.1048212261707
 30
0.0
 10
-89.04885550095167
 20
-253.2071076315516
 30
0.0
 10
-89.06359162128247
 20
-253.2695964451018
 30
0.0
 10
-89.09833572932502
 20
-253.4169792368385
 30
0.0
 10
-89.11840274664537
 20
-253.5021245512524
 30
0.0
 10
-89.1839210329267
 20
-253.7802348324924
 30
0.0
 10
-89.23635773729261
 20
-254.0029616417003
 30
0.0
 10
-89.34866564632581
 20
-254.4804976074352
 30
0.0
 10
-89.41035600114644
 20
-254.7430549476655
 30
0.0
 10
-89.4706655837545
 20
-254.9999999999995
 30
0.0
  0
SPLINE
  5
A7
330
1F
100
AcDbEntity
  8
0
  6
Continuous
 62
     7
370
    25
100
AcDbSpline
210
0.0
220
0.0
230
1.0
 70
     8
 71
     3
 72
    18
 73
    14
 74
     0
 42
0.000000001
 43
0.00000001
 40
0.0
 40
0.0
 40
0.0
 40
0.0
 40
0.1250000000000092
 40
0.1250000000000092
 40
0.2500000000000184
 40
0.2500000000000184
 40
0.3750000000000276
 40
0.3750000000000276
 40
0.5000000000000369
 40
0.5000000000000369
 40
0.7500000000000184
 40
0.7500000000000184
 40
1.0
 40
1.0
 40
1.0
 40
1.0
 10
89.00000000000003
 20
-250.9999999999999
 30
0.0
 10
89.00000000000003
 20
-251.0
 30
0.0
 10
89.00314025353131
 20
-250.9866919698081
 30
0.0
 10
89.01542384913058
 20
-250.9346274924129
 30
0.0
 10
89.02473047981309
 20
-250.8951787738288
 30
0.0
 10
89.04885550095163
 20
-250.792892368448
 30
0.0
 10
89.06359162128254
 20
-250.7304035548977
 30
0.0
 10
89.09833572932506
 20
-250.5830207631611
 30
0.0
 10
89.11840274664539
 20
-250.4978754487472
 30
0.0
 10
89.18392103292679
 20
-250.219765167507
 30
0.0
 10
89.23635773729258
 20
-249.997038358299
 30
0.0
 10
89.34866564632577
 20
-249.5195023925643
 30
0.0
 10
89.41035600114665
 20
-249.2569450523339
 30
0.0
 10
89.47066558375447
 20
-248.9999999999999
 30
0.0
  0
SPLINE
  5
A9
330
1F
100
AcDbEntity
  8
0
  6
Continuous
 62
     7
370
    25
100
AcDbSpline
210
0.0
220
0.0
230
1.0
 70
     8
 71
     3
 72
    18
 73
    14
 74
     0
 42
0.000000001
 43
0.00000001
 40
0.0
 40
0.0
 40
0.0
 40
0.0
 40
0.1250000000000098
 40
0.1250000000000098
 40
0.2500000000000195
 40
0.2500000000000195
 40
0.3750000000000293
 40
0.3750000000000293
 40
0.5000000000000391
 40
0.5000000000000391
 40
0.7500000000000195
 40
0.7500000000000195
 40
1.0
 40
1.0
 40
1.0
 40
1.0
 10
-88.99999999999997
 20
-250.9999999999999
 30
0.0
 10
-89.00000000000001
 20
-250.9999999999999
 30
0.0
 10
-89.00314025353116
 20
-250.986691969808
 30
0.0
 10
-89.0154238491304
 20
-250.934627492413
 30
0.0
 10
-89.02473047981297
 20
-250.8951787738288
 30
0.0
 10
-89.04885550095149
 20
-250.7928923684479
 30
0.0
 10
-89.06359162128237
 20
-250.7304035548976
 30
0.0
 10
-89.09833572932489
 20
-250.583020763161
 30
0.0
 10
-89.11840274664516
 20
-250.4978754487471
 30
0.0
 10
-89.1839210329266
 20
-250.219765167507
 30
0.0
 10
-89.23635773729244
 20
-249.9970383582991
 30
0.0
 10
-89.34866564632564
 20
-249.5195023925643
 30
0.0
 10
-89.41035600114677
 20
-249.2569450523339
 30
0.0
 10
-89.4706655837543
 20
-248.9999999999999
 30
0.0
  0
LINE
  5
B9
330
1F
100
AcDbEntity
  8
0
  6
Continuous
 62
     7
370
    25
100
AcDbLine
 10
157.0
 20
-253.0
 30
0.0
 11
157.0
 21
-251.0
 31
0.0
  0
LINE
  5
BA
330
1F
100
AcDbEntity
  8
0
  6
Continuous
 62
     7
370
    25
100
AcDbLine
 10
175.0
 20
-701.0
 30
0.0
 11
175.0
 21
699.0
 31
0.0
  0
LINE
  5
BB
330
1F
100
AcDbEntity
  8
0
  6
Continuous
 62
     7
370
    25
100
AcDbLine
 10
-156.5
 20
-251.0
 30
0.0
 11
-156.5
 21
-253.0
 31
0.0
  0
LINE
  5
BC
330
1F
100
AcDbEntity
  8
0
  6
Continuous
 62
     7
370
    25
100
AcDbLine
 10
156.5
 20
-253.0
 30
0.0
 11
156.5
 21
-251.0
 31
0.0
  0
LINE
  5
BD
330
1F
100
AcDbEntity
  8
0
  6
Continuous
 62
     7
370
    25
100
AcDbLine
 10
173.5
 20
-255.0
 30
0.0
 11
89.4706655838
 21
-255.0
 31
0.0
  0
LINE
  5
BE
330
1F
100
AcDbEntity
  8
0
  6
Continuous
 62
     7
370
    25
100
AcDbLine
 10
89.0
 20
-253.0
 30
0.0
 11
171.5
 21
-253.0
 31
0.0
  0
LINE
  5
BF
330
1F
100
AcDbEntity
  8
0
  6
Continuous
 62
     7
370
    25
100
AcDbLine
 10
163.5
 20
-701.0
 30
0.0
 11
163.5
 21
-253.0
 31
0.0
  0
LINE
  5
C0
330
1F
100
AcDbEntity
  8
0
  6
Continuous
 62
     7
370
    25
100
AcDbLine
 10
-89.4706655838
 20
-255.0
 30
0.0
 11
-173.5
 21
-255.0
 31
0.0
  0
LINE
  5
C1
330
1F
100
AcDbEntity
  8
0
  6
Continuous
 62
     7
370
    25
100
AcDbLine
 10
-163.5
 20
-253.0
 30
0.0
 11
-163.5
 21
-701.0
 31
0.0
  0
LINE
  5
C2
330
1F
100
AcDbEntity
  8
0
  6
Continuous
 62
     7
370
    25
100
AcDbLine
 10
-173.5
 20
-699.0
 30
0.0
 11
173.5
 21
-699.0
 31
0.0
  0
LINE
  5
C3
330
1F
100
AcDbEntity
  8
0
  6
Continuous
 62
     7
370
    25
100
AcDbLine
 10
-173.5
 20
-699.0
 30
0.0
 11
-173.5
 21
-255.0
 31
0.0
  0
LINE
  5
C4
330
1F
100
AcDbEntity
  8
0
  6
Continuous
 62
     7
370
    25
100
AcDbLine
 10
175.0
 20
-701.0
 30
0.0
 11
-175.0
 21
-701.0
 31
0.0
  0
LINE
  5
C5
330
1F
100
AcDbEntity
  8
0
  6
Continuous
 62
     7
370
    25
100
AcDbLine
 10
173.5
 20
-255.0
 30
0.0
 11
173.5
 21
-699.0
 31
0.0
  0
LINE
  5
C6
330
1F
100
AcDbEntity
  8
0
  6
Continuous
 62
     7
370
    25
100
AcDbLine
 10
-171.5
 20
-253.0
 30
0.0
 11
-89.0
 21
-253.0
 31
0.0
  0
LINE
  5
C7
330
1F
100
AcDbEntity
  8
0
  6
Continuous
 62
     7
370
    25
100
AcDbLine
 10
-175.0
 20
699.0
 30
0.0
 11
175.0
 21
699.0
 31
0.0
  0
LINE
  5
C8
330
1F
100
AcDbEntity
  8
0
  6
Continuous
 62
     7
370
    25
100
AcDbLine
 10
-157.0
 20
-253.0
 30
0.0
 11
-157.0
 21
-251.0
 31
0.0
  0
LINE
  5
C9
330
1F
100
AcDbEntity
  8
0
  6
Continuous
 62
     7
370
    25
100
AcDbLine
 10
-175.0
 20
-701.0
 30
0.0
 11
-175.0
 21
699.0
 31
0.0
  0
LINE
  5
CA
330
1F
100
AcDbEntity
  8
0
  6
Continuous
 62
     7
370
    25
100
AcDbLine
 10
89.4706655838
 20
-249.0
 30
0.0
 11
173.5
 21
-249.0
 31
0.0
  0
LINE
  5
CB
330
1F
100
AcDbEntity
  8
0
  6
Continuous
 62
     7
370
    25
100
AcDbLine
 10
171.5
 20
-251.0
 30
0.0
 11
89.0
 21
-251.0
 31
0.0
  0
LINE
  5
CC
330
1F
100
AcDbEntity
  8
0
  6
Continuous
 62
     7
370
    25
100
AcDbLine
 10
163.5
 20
-251.0
 30
0.0
 11
163.5
 21
699.0
 31
0.0
  0
LINE
  5
CD
330
1F
100
AcDbEntity
  8
0
  6
Continuous
 62
     7
370
    25
100
AcDbLine
 10
-173.5
 20
-249.0
 30
0.0
 11
-89.4706655838
 21
-249.0
 31
0.0
  0
LINE
  5
CE
330
1F
100
AcDbEntity
  8
0
  6
Continuous
 62
     7
370
    25
100
AcDbLine
 10
-173.5
 20
-249.0
 30
0.0
 11
-173.5
 21
697.0
 31
0.0
  0
LINE
  5
CF
330
1F
100
AcDbEntity
  8
0
  6
Continuous
 62
     7
370
    25
100
AcDbLine
 10
-163.5
 20
699.0
 30
0.0
 11
-163.5
 21
-251.0
 31
0.0
  0
LINE
  5
D0
330
1F
100
AcDbEntity
  8
0
  6
Continuous
 62
     7
370
    25
100
AcDbLine
 10
173.5
 20
697.0
 30
0.0
 11
-173.5
 21
697.0
 31
0.0
  0
LINE
  5
D1
330
1F
100
AcDbEntity
  8
0
  6
Continuous
 62
     7
370
    25
100
AcDbLine
 10
173.5
 20
697.0
 30
0.0
 11
173.5
 21
-249.0
 31
0.0
  0
LINE
  5
D2
330
1F
100
AcDbEntity
  8
0
  6
Continuous
 62
     7
370
    25
100
AcDbLine
 10
-89.0
 20
-251.0
 30
0.0
 11
-171.5
 21
-251.0
 31
0.0
  0
ARC
  5
D3
330
1F
100
AcDbEntity
  8
0
  6
Continuous
 62
     7
370
    25
100
AcDbCircle
 10
171.5
 20
-699.0
 30
0.0
 40
2.000000000000171
100
AcDbArc
 50
270.0
 51
360.0
  0
ARC
  5
D4
330
1F
100
AcDbEntity
  8
0
  6
Continuous
 62
     7
370
    25
100
AcDbCircle
 10
-171.5
 20
-699.0
 30
0.0
 40
2.000000000000114
100
AcDbArc
 50
180.0
 51
270.0
  0
ARC
  5
D5
330
1F
100
AcDbEntity
  8
0
  6
Continuous
 62
     7
370
    25
100
AcDbCircle
 10
0.0
 20
-74.9047619048
 30
0.0
 40
201.095238095238
100
AcDbArc
 50
243.5819792101
 51
296.4180207899
  0
ARC
  5
D6
330
1F
100
AcDbEntity
  8
0
  6
Continuous
 62
     7
370
    25
100
AcDbCircle
 10
171.5
 20
-255.0
 30
0.0
 40
2.000000000000142
100
AcDbArc
 50
0.0
 51
90.0
  0
ARC
  5
D7
330
1F
100
AcDbEntity
  8
0
  6
Continuous
 62
     7
370
    25
100
AcDbCircle
 10
0.0
 20
-74.9047619048
 30
0.0
 40
199.09523809524
100
AcDbArc
 50
243.4472059154
 51
296.5527940846
  0
ARC
  5
D8
330
1F
100
AcDbEntity
  8
0
  6
Continuous
 62
     7
370
    25
100
AcDbCircle
 10
-171.5
 20
-255.0
 30
0.0
 40
2.000000000000057
100
AcDbArc
 50
90.0
 51
180.0
  0
ARC
  5
D9
330
1F
100
AcDbEntity
  8
0
  6
Continuous
 62
     7
370
    25
100
AcDbCircle
 10
171.5
 20
-249.0
 30
0.0
 40
2.0
100
AcDbArc
 50
270.0
 51
0.0
  0
ARC
  5
DA
330
1F
100
AcDbEntity
  8
0
  6
Continuous
 62
     7
370
    25
100
AcDbCircle
 10
0.0
 20
-429.0952380952
 30
0.0
 40
201.0952380952374
100
AcDbArc
 50
63.5819792101
 51
116.4180207899
  0
ARC
  5
DB
330
1F
100
AcDbEntity
  8
0
  6
Continuous
 62
     7
370
    25
100
AcDbCircle
 10
0.0
 20
-429.0952380952
 30
0.0
 40
199.0952380952396
100
AcDbArc
 50
63.4472059154
 51
116.5527940846
  0
ARC
  5
DC
330
1F
100
AcDbEntity
  8
0
  6
Continuous
 62
     7
370
    25
100
AcDbCircle
 10
-171.5
 20
697.0
 30
0.0
 40
2.000000000000114
100
AcDbArc
 50
90.0
 51
180.0
  0
ARC
  5
DD
330
1F
100
AcDbEntity
  8
0
  6
Continuous
 62
     7
370
    25
100
AcDbCircle
 10
-171.5
 20
-249.0
 30
0.0
 40
2.000000000000085
100
AcDbArc
 50
180.0
 51
270.0
  0
ARC
  5
DE
330
1F
100
AcDbEntity
  8
0
  6
Continuous
 62
     7
370
    25
100
AcDbCircle
 10
171.5
 20
697.0
 30
0.0
 40
2.000000000000114
100
AcDbArc
 50
0.0
 51
90.0
  0
CIRCLE
  5
EF
330
1B
100
AcDbEntity
 67
     1
  8
0
  6
Continuous
 62
     7
370
    25
100
AcDbCircle
 10
-120.0
 20
599.0
 30
0.0
 40
7.500000000000014
  0
CIRCLE
  5
F0
330
1B
100
AcDbEntity
 67
     1
  8
0
  6
Continuous
 62
     7
370
    25
100
AcDbCircle
 10
-120.0
 20
549.0
 30
0.0
 40
7.500000000000014
  0
CIRCLE
  5
F1
330
1B
100
AcDbEntity
 67
     1
  8
0
  6
Continuous
 62
     7
370
    25
100
AcDbCircle
 10
120.0
 20
549.0
 30
0.0
 40
7.500000000000028
  0
CIRCLE
  5
F2
330
1B
100
AcDbEntity
 67
     1
  8
0
  6
Continuous
 62
     7
370
    25
100
AcDbCircle
 10
120.0
 20
599.0
 30
0.0
 40
7.5
  0
LINE
  5
F3
330
1B
100
AcDbEntity
 67
     1
  8
0
  6
Continuous
 62
     7
370
    25
100
AcDbLine
 10
-157.0
 20
699.0
 30
0.0
 11
-157.0
 21
-701.0
 31
0.0
  0
LINE
  5
F4
330
1B
100
AcDbEntity
 67
     1
  8
0
  6
Continuous
 62
     7
370
    25
100
AcDbLine
 10
-175.0
 20
-701.0
 30
0.0
 11
175.0
 21
-701.0
 31
0.0
  0
LINE
  5
F5
330
1B
100
AcDbEntity
 67
     1
  8
0
  6
Continuous
 62
     7
370
    25
100
AcDbLine
 10
-175.0
 20
699.0
 30
0.0
 11
175.0
 21
699.0
 31
0.0
  0
LINE
  5
F6
330
1B
100
AcDbEntity
 67
     1
  8
0
  6
Continuous
 62
     7
370
    25
100
AcDbLine
 10
-175.0
 20
699.0
 30
0.0
 11
-175.0
 21
-701.0
 31
0.0
  0
LINE
  5
F7
330
1B
100
AcDbEntity
 67
     1
  8
0
  6
Continuous
 62
     7
370
    25
100
AcDbLine
 10
-157.0
 20
681.0
 30
0.0
 11
157.0
 21
681.0
 31
0.0
  0
LINE
  5
F8
330
1B
100
AcDbEntity
 67
     1
  8
0
  6
Continuous
 62
     7
370
    25
100
AcDbLine
 10
157.0
 20
699.0
 30
0.0
 11
157.0
 21
-701.0
 31
0.0
  0
LINE
  5
F9
330
1B
100
AcDbEntity
 67
     1
  8
0
  6
Continuous
 62
     7
370
    25
100
AcDbLine
 10
-157.0
 20
-683.0
 30
0.0
 11
157.0
 21
-683.0
 31
0.0
  0
LINE
  5
FA
330
1B
100
AcDbEntity
 67
     1
  8
0
  6
Continuous
 62
     7
370
    25
100
AcDbLine
 10
175.0
 20
699.0
 30
0.0
 11
175.0
 21
-701.0
 31
0.0
  0
VIEWPORT
  5
216
330
1B
100
AcDbEntity
 67
     1
  8
0
100
AcDbViewport
 10
0.0
 20
0.0
 30
0.0
 40
205.6
 41
156.0
 68
     1
 69
     1
 12
0.0
 22
-1.0
 13
0.0
 23
0.0
 14
10.0
 24
10.0
 15
10.0
 25
10.0
 16
0.0
 26
0.0
 36
1.0
 17
0.0
 27
0.0
 37
0.0
 42
50.0
 43
0.0
 44
0.0
 45
1428.0
 50
0.0
 51
0.0
 72
   100
 90
   557152
  1

281
     0
 71
     1
 74
     0
110
0.0
120
0.0
130
0.0
111
1.0
121
0.0
131
0.0
112
0.0
122
1.0
132
0.0
 79
     0
146
0.0
  0
ENDSEC
  0
SECTION
  2
OBJECTS
  0
DICTIONARY
  5
C
330
0
100
AcDbDictionary
281
     1
  3
ACAD_GROUP
350
D
  3
ACAD_LAYOUT
350
1A
  3
ACAD_MLINESTYLE
350
17
  3
ACAD_PLOTSETTINGS
350
19
  3
ACAD_PLOTSTYLENAME
350
E
  3
ACAD_SCALELIST
350
47
  0
DICTIONARY
  5
D
102
{ACAD_REACTORS
330
C
102
}
330
C
100
AcDbDictionary
281
     1
  0
DICTIONARY
  5
1A
102
{ACAD_REACTORS
330
C
102
}
330
C
100
AcDbDictionary
281
     1
  3
_Back
350
1E
  3
_Isometric
350
161
  3
_Left
350
26
  3
_Top
350
12E
  3
Model
350
22
  0
DICTIONARY
  5
17
102
{ACAD_REACTORS
330
C
102
}
330
C
100
AcDbDictionary
281
     1
  3
Standard
350
18
  0
DICTIONARY
  5
19
102
{ACAD_REACTORS
330
C
102
}
330
C
100
AcDbDictionary
281
     1
  0
ACDBDICTIONARYWDFLT
  5
E
102
{ACAD_REACTORS
330
C
102
}
330
C
100
AcDbDictionary
281
     1
  3
Normal
350
F
100
AcDbDictionaryWithDefault
340
F
  0
DICTIONARY
  5
47
102
{ACAD_REACTORS
330
C
102
}
330
C
100
AcDbDictionary
281
     1
  3
A0
350
48
  3
A1
350
49
  3
A2
350
4A
  3
A3
350
4B
  3
A4
350
4C
  3
A5
350
4D
  3
A6
350
4E
  3
A7
350
4F
  3
A8
350
50
  3
A9
350
51
  3
B0
350
52
  3
B1
350
53
  3
B2
350
54
  3
B3
350
55
  3
B4
350
56
  3
B5
350
57
  3
B6
350
58
  3
B7
350
59
  3
B8
350
5A
  3
B9
350
5B
  3
C0
350
5C
  3
C1
350
5D
  3
C2
350
5E
  3
C3
350
5F
  3
C4
350
60
  3
C5
350
61
  3
C6
350
62
  3
C7
350
63
  3
C8
350
64
  3
C9
350
65
  3
D0
350
66
  3
D1
350
67
  3
D2
350
68
  0
LAYOUT
  5
1E
102
{ACAD_REACTORS
330
1A
102
}
330
1A
100
AcDbPlotSettings
  1

  2
none_device
  4
ISO_A4_(210.00_x_297.00_MM)
  6

 40
7.5
 41
20.0
 42
7.5
 43
20.0
 44
210.0
 45
297.0
 46
0.0
 47
0.0
 48
0.0
 49
0.0
140
0.0
141
0.0
142
1.0
143
7.1794871795
 70
   688
 72
     1
 73
     1
 74
     1
  7

 75
     0
147
0.1392857143
148
175.0
149
701.0
100
AcDbLayout
  1
_Back
 70
     1
 71
     1
 10
-318.5897435897
 20
-754.8461538462
 11
1813.7179487179
 21
752.8461538462
 12
0.0
 22
0.0
 32
0.0
 14
-175.0
 24
-701.0
 34
0.0
 15
175.0
 25
699.0
 35
0.0
146
0.0
 13
0.0
 23
0.0
 33
0.0
 16
1.0
 26
0.0
 36
0.0
 17
0.0
 27
1.0
 37
0.0
 76
     0
330
1B
331
216
  0
LAYOUT
  5
161
102
{ACAD_REACTORS
330
1A
102
}
330
1A
100
AcDbPlotSettings
  1

  2
none_device
  4
ISO_A4_(210.00_x_297.00_MM)
  6

 40
7.5
 41
20.0
 42
7.5
 43
20.0
 44
210.0
 45
297.0
 46
0.0
 47
0.0
 48
0.0
 49
0.0
140
0.0
141
0.0
142
1.0
143
7.1794871795
 70
   688
 72
     1
 73
     1
 74
     1
  7

 75
     0
147
0.1392857143
148
175.0
149
701.0
100
AcDbLayout
  1
_Isometric
 70
     1
 71
     4
 10
0.0
 20
0.0
 11
0.0
 21
0.0
 12
0.0
 22
0.0
 32
0.0
 14
0.0
 24
0.0
 34
0.0
 15
0.0
 25
0.0
 35
0.0
146
0.0
 13
0.0
 23
0.0
 33
0.0
 16
1.0
 26
0.0
 36
0.0
 17
0.0
 27
1.0
 37
0.0
 76
     0
330
160
331
21C
  0
LAYOUT
  5
26
102
{ACAD_REACTORS
330
1A
102
}
330
1A
100
AcDbPlotSettings
  1

  2
none_device
  4
ISO_A4_(210.00_x_297.00_MM)
  6

 40
7.5
 41
20.0
 42
7.5
 43
20.0
 44
210.0
 45
297.0
 46
0.0
 47
0.0
 48
0.0
 49
0.0
140
0.0
141
0.0
142
1.0
143
7.1794871795
 70
   688
 72
     1
 73
     1
 74
     1
  7

 75
     0
147
0.1392857143
148
175.0
149
701.0
100
AcDbLayout
  1
_Left
 70
     1
 71
     2
 10
0.0
 20
0.0
 11
0.0
 21
0.0
 12
0.0
 22
0.0
 32
0.0
 14
0.0
 24
0.0
 34
0.0
 15
0.0
 25
0.0
 35
0.0
146
0.0
 13
0.0
 23
0.0
 33
0.0
 16
1.0
 26
0.0
 36
0.0
 17
0.0
 27
1.0
 37
0.0
 76
     0
330
23
331
218
  0
LAYOUT
  5
12E
102
{ACAD_REACTORS
330
1A
102
}
330
1A
100
AcDbPlotSettings
  1

  2
none_device
  4
ISO_A4_(210.00_x_297.00_MM)
  6

 40
7.5
 41
20.0
 42
7.5
 43
20.0
 44
210.0
 45
297.0
 46
0.0
 47
0.0
 48
0.0
 49
0.0
140
0.0
141
0.0
142
1.0
143
7.1794871795
 70
   688
 72
     1
 73
     1
 74
     1
  7

 75
     0
147
0.1392857143
148
175.0
149
701.0
100
AcDbLayout
  1
_Top
 70
     1
 71
     3
 10
0.0
 20
0.0
 11
0.0
 21
0.0
 12
0.0
 22
0.0
 32
0.0
 14
0.0
 24
0.0
 34
0.0
 15
0.0
 25
0.0
 35
0.0
146
0.0
 13
0.0
 23
0.0
 33
0.0
 16
1.0
 26
0.0
 36
0.0
 17
0.0
 27
1.0
 37
0.0
 76
     0
330
12D
331
21A
  0
LAYOUT
  5
22
102
{ACAD_REACTORS
330
1A
102
}
330
1A
100
AcDbPlotSettings
  1

  2
none_device
  4
ANSI_A_(11.00_x_8.50_Inches)
  6

 40
6.35
 41
19.05
 42
6.35000508
 43
19.05000254
 44
279.4
 45
215.9
 46
133.34999746
 47
89.0526708729
 48
0.0
 49
0.0
140
0.0
141
0.0
142
0.0060107143
143
1.0
 70
  1696
 72
     0
 73
     0
 74
     0
  7

 75
     0
147
0.0179189148
148
-1300.4909072572
149
0.0
100
AcDbLayout
  1
Model
 70
     1
 71
     0
 10
0.0
 20
0.0
 11
420.0
 21
297.0
 12
0.0
 22
0.0
 32
0.0
 14
-175.0
 24
-701.0
 34
0.0
 15
175.0
 25
699.0
 35
0.0
146
0.0
 13
0.0
 23
0.0
 33
0.0
 16
1.0
 26
0.0
 36
0.0
 17
0.0
 27
1.0
 37
0.0
 76
     0
330
1F
331
29
  0
MLINESTYLE
  5
18
102
{ACAD_REACTORS
330
17
102
}
330
17
100
AcDbMlineStyle
  2
Standard
 70
     0
  3

 62
   256
 51
90.0
 52
90.0
 71
     2
 49
0.5
 62
   256
  6
BYLAYER
 49
-0.5
 62
   256
  6
BYLAYER
  0
ACDBPLACEHOLDER
  5
F
102
{ACAD_REACTORS
330
E
102
}
330
E
  0
SCALE
  5
48
102
{ACAD_REACTORS
330
47
102
}
330
47
100
AcDbScale
 70
     0
300
1:1
140
1.0
141
1.0
290
     1
  0
SCALE
  5
49
102
{ACAD_REACTORS
330
47
102
}
330
47
100
AcDbScale
 70
     0
300
1:2
140
1.0
141
2.0
290
     0
  0
SCALE
  5
4A
102
{ACAD_REACTORS
330
47
102
}
330
47
100
AcDbScale
 70
     0
300
1:4
140
1.0
141
4.0
290
     0
  0
SCALE
  5
4B
102
{ACAD_REACTORS
330
47
102
}
330
47
100
AcDbScale
 70
     0
300
1:5
140
1.0
141
5.0
290
     0
  0
SCALE
  5
4C
102
{ACAD_REACTORS
330
47
102
}
330
47
100
AcDbScale
 70
     0
300
1:8
140
1.0
141
8.0
290
     0
  0
SCALE
  5
4D
102
{ACAD_REACTORS
330
47
102
}
330
47
100
AcDbScale
 70
     0
300
1:10
140
1.0
141
10.0
290
     0
  0
SCALE
  5
4E
102
{ACAD_REACTORS
330
47
102
}
330
47
100
AcDbScale
 70
     0
300
1:16
140
1.0
141
16.0
290
     0
  0
SCALE
  5
4F
102
{ACAD_REACTORS
330
47
102
}
330
47
100
AcDbScale
 70
     0
300
1:20
140
1.0
141
20.0
290
     0
  0
SCALE
  5
50
102
{ACAD_REACTORS
330
47
102
}
330
47
100
AcDbScale
 70
     0
300
1:30
140
1.0
141
30.0
290
     0
  0
SCALE
  5
51
102
{ACAD_REACTORS
330
47
102
}
330
47
100
AcDbScale
 70
     0
300
1:40
140
1.0
141
40.0
290
     0
  0
SCALE
  5
52
102
{ACAD_REACTORS
330
47
102
}
330
47
100
AcDbScale
 70
     0
300
1:50
140
1.0
141
50.0
290
     0
  0
SCALE
  5
53
102
{ACAD_REACTORS
330
47
102
}
330
47
100
AcDbScale
 70
     0
300
1:100
140
1.0
141
100.0
290
     0
  0
SCALE
  5
54
102
{ACAD_REACTORS
330
47
102
}
330
47
100
AcDbScale
 70
     0
300
2:1
140
2.0
141
1.0
290
     0
  0
SCALE
  5
55
102
{ACAD_REACTORS
330
47
102
}
330
47
100
AcDbScale
 70
     0
300
4:1
140
4.0
141
1.0
290
     0
  0
SCALE
  5
56
102
{ACAD_REACTORS
330
47
102
}
330
47
100
AcDbScale
 70
     0
300
8:1
140
8.0
141
1.0
290
     0
  0
SCALE
  5
57
102
{ACAD_REACTORS
330
47
102
}
330
47
100
AcDbScale
 70
     0
300
10:1
140
10.0
141
1.0
290
     0
  0
SCALE
  5
58
102
{ACAD_REACTORS
330
47
102
}
330
47
100
AcDbScale
 70
     0
300
100:1
140
100.0
141
1.0
290
     0
  0
SCALE
  5
59
102
{ACAD_REACTORS
330
47
102
}
330
47
100
AcDbScale
 70
     0
300
1/128" = 1'-0"
140
0.0078125
141
12.0
290
     0
  0
SCALE
  5
5A
102
{ACAD_REACTORS
330
47
102
}
330
47
100
AcDbScale
 70
     0
300
1/64" = 1'-0"
140
0.015625
141
12.0
290
     0
  0
SCALE
  5
5B
102
{ACAD_REACTORS
330
47
102
}
330
47
100
AcDbScale
 70
     0
300
1/32" = 1'-0"
140
0.03125
141
12.0
290
     0
  0
SCALE
  5
5C
102
{ACAD_REACTORS
330
47
102
}
330
47
100
AcDbScale
 70
     0
300
1/16" = 1'-0"
140
0.0625
141
12.0
290
     0
  0
SCALE
  5
5D
102
{ACAD_REACTORS
330
47
102
}
330
47
100
AcDbScale
 70
     0
300
3/32" = 1'-0"
140
0.09375
141
12.0
290
     0
  0
SCALE
  5
5E
102
{ACAD_REACTORS
330
47
102
}
330
47
100
AcDbScale
 70
     0
300
1/8" = 1'-0"
140
0.125
141
12.0
290
     0
  0
SCALE
  5
5F
102
{ACAD_REACTORS
330
47
102
}
330
47
100
AcDbScale
 70
     0
300
3/16" = 1'-0"
140
0.1875
141
12.0
290
     0
  0
SCALE
  5
60
102
{ACAD_REACTORS
330
47
102
}
330
47
100
AcDbScale
 70
     0
300
1/4" = 1'-0"
140
0.25
141
12.0
290
     0
  0
SCALE
  5
61
102
{ACAD_REACTORS
330
47
102
}
330
47
100
AcDbScale
 70
     0
300
3/8" = 1'-0"
140
0.375
141
12.0
290
     0
  0
SCALE
  5
62
102
{ACAD_REACTORS
330
47
102
}
330
47
100
AcDbScale
 70
     0
300
1/2" = 1'-0"
140
0.5
141
12.0
290
     0
  0
SCALE
  5
63
102
{ACAD_REACTORS
330
47
102
}
330
47
100
AcDbScale
 70
     0
300
3/4" = 1'-0"
140
0.75
141
12.0
290
     0
  0
SCALE
  5
64
102
{ACAD_REACTORS
330
47
102
}
330
47
100
AcDbScale
 70
     0
300
1" = 1'-0"
140
1.0
141
12.0
290
     0
  0
SCALE
  5
65
102
{ACAD_REACTORS
330
47
102
}
330
47
100
AcDbScale
 70
     0
300
1-1/2" = 1'-0"
140
1.5
141
12.0
290
     0
  0
SCALE
  5
66
102
{ACAD_REACTORS
330
47
102
}
330
47
100
AcDbScale
 70
     0
300
3" = 1'-0"
140
3.0
141
12.0
290
     0
  0
SCALE
  5
67
102
{ACAD_REACTORS
330
47
102
}
330
47
100
AcDbScale
 70
     0
300
6" = 1'-0"
140
6.0
141
12.0
290
     0
  0
SCALE
  5
68
102
{ACAD_REACTORS
330
47
102
}
330
47
100
AcDbScale
 70
     0
300
1'-0" = 1'-0"
140
12.0
141
12.0
290
     0
  0
ENDSEC
  0
EOF
